Children Of Bodom - Passage To The Reaper tab

Passage to the reaper

A guitar lesson by 

Alexi "Wild Child" Laiho
	
Children of Bodom & Sinergy
 

Demonstration #1

-==Ex-1==-

e-----------------------------|---------------------------|B-----------------------------|---------------------------|G-12-0-0-0-0-0-0-0-0-0-0-0-0--|-10-0-0-0-0-0-0-0-0-0-0-0--|D-----------------------------|---------------------------|A-----------------------------|---------------------------|E-----------------------------|---------------------------|
|-----------------------------|---------------------------||-----------------------------|---------------------------||-8-0-0-0-0-0-0-0-0-0-0-0-0---|-7-0-0-0-0-0-0-0-0-0-0-0---||-----------------------------|---------------------------||-----------------------------|---------------------------||-----------------------------|---------------------------|
|----------------------------|-----------------------------||----------------------------|-----------------------------||-7--------------------------|-10--------------------------||---5-5-5-5-5-5-5-5-5-5-5----|----5-5-5-5-5-5-5-5-5-5-5----||----------------------------|-----------------------------||----------------------------|-----------------------------|
|-----------------------------|---------------------------||-8---------------------------|-7-------------------------||---5-5-5-5-5-5-5-5-5-5-5-5---|---5-5-5-5-5-5-5-5-5-5-5---||-----------------------------|---------------------------||-----------------------------|---------------------------||-----------------------------|---------------------------|
-==Ex-2==-
|-10-8-6------------------|---------------------------||--------10-8-7-----------|---------------------------||---------------8-7-5-----|---------------------------||---------------------8-7-|-5-5-5-5-5-5-5-5-5-5-5-5---||-------------------------|---------------------------||-------------------------|---------------------------|
|-15-13-11-------------------------|-------------------------------------||----------15-13-11----------------|-------------------------------------||-------------------14-12-10-------|-------------------------------------||----------------------------13-12-|-10-10-10-10-10-10-10-10-10-10-10-10-||----------------------------------|-------------------------------------||----------------------------------|-------------------------------------|
|-18-17-15-------------------------|-------------------------------------||----------18-16-15----------------|-------------------------------------||-------------------17-15-14-------|-------------------------------------||----------------------------17-15-|-13-13-13-13-13-13-13-13-13-13-13-13-||----------------------------------|-------------------------------------||----------------------------------|-------------------------------------|
|-22-20-18-------------------------|-------------------------------------||----------22-20-19----------------|-------------------------------------||-------------------21-19-17-------|-------------------------------------||----------------------------20-19-|-17-17-17-17-17-17-17-17-17-17-17-17-||----------------------------------|-------------------------------------||----------------------------------|-------------------------------------|
-==Ex-3==-
|-------------------------------------|----------15-17----------15-17-19-21-|-22-||----------------------14-15----------|-15-17-18-------15-17-18-------------|-----||-------------12-14-16-------14-16-18-|-------------------------------------|-----||-15-12-14-15-------------------------|-------------------------------------|-----||-------------------------------------|-------------------------------------|-----||-------------------------------------|-------------------------------------|-----|
-==Ex-4==-
|----------------------------|----------------------------||----------------------------|----------------------------||----19-17-------------------|----------------------------||----------20-19-17----------|----17-15-------------------||-17----------------20-19-17-|----------18-17-15----------||----------------------------|-15----------------18-17-15-|
|-----------------------------|----------------------------||-----------------------------|----------------------------||----17-15--------------------|----------------------------||----------19-17-15-----------|----15-14-------------------||-15----------------19-17-15--|----------17-15-13----------||-----------------------------|-13----------------17-15-13-|
|-----------------------------|----------------------------||-----------------------------|----------------------------||----15-14--------------------|----------------------------||----------17-15-13-----------|----13-12-------------------||-13----------------17-15-13--|----------15-13-11----------||-----------------------------|-11----------------15-13-11-|
|-----------------------------|----------------------------||-----------------------------|----------------------------||----13-12--------------------|----16-14-------------------||----------15-13-12-----------|----------17-15-13----------||-11----------------15-13-11--|-14----------------17-15-14-||-----------------------------|----------------------------|
|----------------------------|----------------------------||----------------------------|----------------------------||----------------------------|----17-15-------------------||----17-15-------------------|----------18-17-15----------||----------18-17-15----------|-15----------------18-17-15-||-15----------------19-16-15-|----------------------------|
-==Ex-5==-
|-------------------------|-------------------------||-------------------------|-------------------------||-7-7-7-7-7-7-7-7-7-7-7-7-|-7-3-----7-3-----7-3-----||-------------------------|-----5-0-----5-0-----5-0-||-------------------------|-------------------------||-------------------------|-------------------------|
|-------------------------|-------------------------||-------------------------|-------------------------||-7-7-7-7-7-7-7-7-7-7-7-7-|-7-3-----7-3-----7-3-----||-------------------------|-----5-0-----5-0-----5-0-||-------------------------|-------------------------||-------------------------|-------------------------|
|-------------------------|-------------------------||-------------------------|-------------------------||-7-7-7-7-7-7-7-7-7-7-7-7-|-7-7-7-7-7-7-7-7-7-7-7-7-||-------------------------|-------------------------||-------------------------|-------------------------||-------------------------|-------------------------|
|-------------------------|-6-6-6-6-10-10-10-10-15-15-15-15-||-----------------8-8-8-8-|---------------------------------||---------7-7-7-7---------|---------------------------------||-8-8-8-8-----------------|---------------------------------||-------------------------|---------------------------------||-------------------------|---------------------------------|
|-18-18-18-18-15-15-15-15-------------|--------------||-------------------------------------|----------18^-||-------------------------19-19-19-19-|-15-15-15-----||-------------------------------------|--------------||-------------------------------------|--------------||-------------------------------------|--------------|
any problems contact me: lukesenior791@hotmail.com
Tap to rate this tab
 
# A B C D E F G H I J K L M N O P Q R S T U V W X Y Z