Children Of Bodom - Were Not Gonna Fall tab

#----------------------------------PLEASE NOTE---------------------------------#
#This file is the author's own work and represents their interpretation of the #
#song. You may only use this file for private study, scholarship, or research. #
#------------------------------------------------------------------------------#

WE'RE NOT GONNA FALL
Children Of Bodom




I figured this site needed a correct tab. It sounds perfecto.
 Played in Drop C 

!!THE REASON THERE IS 29 'FRETS' IS DUE TO THE KEYBOARD SOLO BY WARMAN.!!


 


Intro Fast Metal Q=190 D5 E5 D5 4/4 Gtr I PM------------||----------------|---------------------|-----------------|-------------------||----------------|---------------------|-----------------|-------------------||----------------|---------------------|-----------------|-------------------||-------7--------|---------------------|-------7---------|-----7------9--7---||-------5--------|---------------------|-------5--10-9-7-|-(7)---10-9-7--5---||-5-4-2----5-4-5-|-(5)-2-2-2-2-2-2-2-2-|-5-4-2-----------|-------------------|
|
| Gtr II| PM------------||----------------|---------------------|-----------------|-------------------||----------------|---------------------|-----------------|-------------------||----------------|---------------------|-----------4-5-4-|-(4)-5--4----------||-------0--------|---------------------|-------0---------|----------7-5--4---||-------0--------|---------------------|-------0---------|-------------------||-5-4-2----5-4-5-|-(5)-2-2-2-2-2-2-2-2-|-5-4-2-----------|-------------------|
D5 ~~~~~~~~~~~PM------------||------------------|-----------------------||------------------|-----------------------||------------------|-----------------------||-------7----------|-----------------------||-------5----------|-----------------------||-5-4-2----5-4-[5]-|-([5])-2-2-2-2-2-2-2-2-|
|
| ~~~~~~~~~~~PM------------||------------------|-----------------------||------------------|-----------------------||------------------|-----------------------||-------0----------|-----------------------||-------0----------|-----------------------||-5-4-2----5-4-[5]-|-([5])-2-2-2-2-2-2-2-2-|
|-----------------|------------------------||-----------------|------------------------||-----------------|------------------------||-------7---------|----------9--7-----7--9-||-------5--10-9-7-|--9----9--------9-------||-5-4-2-----------|----9-------------------|
|
|-----------------|------------------------||-----------------|---------12-10----10-12-||-----------------|-11---11-------11-------||-------0---9-8-7-|----9-------------------||-------0---------|------------------------||-5-4-2-----------|------------------------|
D5 PM-----------------||-----------------------|----------------------------||-----------------------|----------------------------||-----------------------|----------------------------||-----------7-----------|----------------------------||-----------5-----------|----------------------------||--5--4--2------5--4--5-|-(5)--2--2--2--2-2--2--2--2-|
|
| PM-----------------||-----------------------|----------------------------||-----------------------|----------------------------||-----------------------|----------------------------||-----------0-----------|----------------------------||-----------0-----------|----------------------------||--5--4--2------5--4--5-|-(5)--2--2--2--2-2--2--2--2-|
|
| Gtr III|-12----12-10--12-14-10-|-12-----15----14------10-14-||----12-----------------|-----12----12------12-------||-----------------------|----------------------------||-----------------------|----------------------------||-----------------------|----------------------------||-----------------------|----------------------------|
E5 D5|-----------------------|-----------------------||-----------------------|-----------------------||-----------------------|-----------------------||-----------7-----------|-------7--------9---7--||-----------5--10--9--7-|--(7)----10--9--7---5--||--5--4--2--------------|-----------------------|
|
|-----------------------|-----------------------||-----------------------|-----------------------||---------------4--5--4-|--(4)--5--4------------||-----------0-----------|-------------7--5---4--||-----------0-----------|-----------------------||--5--4--2--------------|-----------------------|
|
|-12----12-10--12-14-12-|-(12)-17-15-14-12--10--||----12-----------------|-----------------------||-----------------------|-----------------------||-----------------------|-----------------------||-----------------------|-----------------------||-----------------------|-----------------------|
D5 ~~~~~~~~~~~ PM-----------------||------------------------|------------------------------||------------------------|------------------------------||------------------------|------------------------------||-----------7------------|------------------------------||-----------5------------|------------------------------||--5--4--2------5--4-[5]-|-([5])--2--2--2--2-2--2--2--2-|
|
| ~~~~~~~~~~~ PM-----------------||------------------------|------------------------------||------------------------|------------------------------||------------------------|------------------------------||-----------0------------|------------------------------||-----------0------------|------------------------------||--5--4--2------5--4-[5]-|-([5])--2--2--2--2-2--2--2--2-|
|
|-12----12-10--12-14-10--|--12------15----14------10-14-||----12------------------|-------12----12------12-------||------------------------|------------------------------||------------------------|------------------------------||------------------------|------------------------------||------------------------|------------------------------|
|-----------------------|-------------------------||-----------------------|-------------------------||-----------------------|-------------------------||-----------7-----------|-----------9--7-----7--9-||-----------5--10--9--7-|--9-----9--------9-------||--5--4--2--------------|-----9-------------------|
|
|-----------------------|-------------------------||-----------------------|----------12-10----10-12-||-----------------------|-11----11-------11-------||-----------0---9--8--7-|-----9-------------------||-----------0-----------|-------------------------||--5--4--2--------------|-------------------------|
|
|-12----12-10--12-14-10-|-14----14----17----17----||----12-----------------|----12----12----15----15-||-----------------------|-------------------------||-----------------------|-------------------------||-----------------------|-------------------------||-----------------------|-------------------------|
E5 D5||--------------------|-------------------------|||o--------------7----|--8-----8-----7-----7----|||---9---9--7--9------|-----9-----9-----7-----7-|||-----9--------------|-------------------------|||o-------------------|-------------------------|||--------------------|-------------------------|
|
||--------------------|-------------------------|||o-------------------|-------------------------|||--------------------|--9-----9-----7-----7----|||---2------0-------9-|-----9-----9-----9-----9-|||o--2------0---------|-------------------------|||---2------0---------|-------------------------|
|
||--19-----17---------|-12----12----10----10----|||o-20-----19------12-|----12----12----12----12-|||--------------------|-------------------------|||--------------------|-------------------------|||o-------------------|-------------------------|||--------------------|-------------------------|
C5 D5 B5 D5|---------------------|--------------------------|||----------------7--8-|---------12-10----10-12--o|||--9---9--7--9--------|-11---11-------11---------|||----9----------------|----9---------------------|||---------------------|-------------------------o|||---------------------|--------------------------||
|
|---------------------|--------------------------|||---------------------|-------------------------o|||---------------------|--------------------------|||--5------7-----(7)---|--4----------7------------|||--3------5-----(5)---|--2----------5-----------o|||---------------------|--------------------------||
|
|-15-----17----(17)---|-14---------17------------|||-17-----19----(19)---|-15---------19-----------o|||---------------------|--------------------------|||---------------------|--------------------------|||---------------------|-------------------------o|||---------------------|--------------------------||
Verse E5D5E5 E5D5E5 E5 D5 N.C. PM-------------------------------|---------------|-----------------|---------------------------------||---------------|-----------------|---------------------------------||---------------|-----------------|---------------------------------||-2-0-2---2-0-2-|-(2)-------9--7--|---------------------------------||-2-0-2---2-0-2-|-(2)-------7--5--|-----------------2-2-2-2-2-2-2-2-||-2-0-2---2-0-2-|-(2)-0-5-0-------|-2-2-2-2-4-4-5-5-----------------|
|
| PM-------------------------------|---------------|-----------------|---------------------------------||---------------|-----------------|---------------------------------||---------------|-----------------|---------------------------------||-2-0-2---2-0-2-|-(2)-------2--0--|---------------------------------||-2-0-2---2-0-2-|-(2)-------2--0--|-----------------2-2-2-2-2-2-2-2-||-2-0-2---2-0-2-|-(2)-0-5-0-------|-2-2-2-2-4-4-5-5-----------------|
-------------------------------||------------------------------------||------------------------------------||------------------------------------||------------------------------------||-----------------0-0-0-0-0-0-0-0----||-0-0-0-0-4-4-2-2--------------------|
|
|-------------------------------||------------------------------------||------------------------------------||------------------------------------||------------------------------------||-----------------0-0-0-0-0-0-0-0----||-0-0-0-0-4-4-2-2--------------------|
E5D5E5 E5D5E5 D5 F5 N.C. PM---------------------------------|---------------|------------------|-----------------------------------||---------------|------------------|-----------------------------------||---------------|------------------|-------------------6-6-6-6-6-6-6-6-||-2-0-2---2-0-2-|-(2)-------7--10--|-5-5-5-5--8--8-7-7-----------------||-2-0-2---2-0-2-|-(2)-------5---8--|-----------------------------------||-2-0-2---2-0-2-|-(2)-0-5-0--------|-----------------------------------|
|
| PM---------------------------------|---------------|------------------|-----------------------------------||---------------|------------------|-----------------------------------||---------------|------------------|-----------------------------------||-2-0-2---2-0-2-|-(2)-------0---3--|-------------------8-8-8-8-8-8-8-8-||-2-0-2---2-0-2-|-(2)-------0---3--|-7-7-7-7-10-10-9-9-----------------||-2-0-2---2-0-2-|-(2)-0-5-0--------|-----------------------------------|
-------------------------------||------------------------------------|||------------------------------------|||-2-2-2-2-1-1------------------------|||-------------5-5-3-3-3-3-3-3-3-3----|||------------------------------------|||------------------------------------||
|
|-------------------------------||------------------------------------|||------------------------------------|||------------------------------------|||-----------------6-6-6-6-6-6-6-6----|||-5-5-5-5-8-8-7-7--------------------|||------------------------------------||
Pre-Chorus $ C#5B5 C#5 B5 C#5|---------------------|-------------------||---------------------|-------------------||---------------------|----------------4--||--6--4--6----6--4--6-|--(6)-------6------||--4--2--4----4--2--4-|--(4)-4-7-4---4----||---------------------|-------------------|
|
|---------------------|-------------------||---------------------|-------------------||---------------------|----------------4--||---------------------|------------6------||--7--6--7----7--6--7-|--(7)-4-7-4---4----||---------------------|-------------------|
|
| Gtr III|-12-11-12---12-11-21-|-(21)--------------||-14-12-14---14-12-21-|-(21)--------------||---------------------|-------------------||---------------------|-------------------||---------------------|-------------------||---------------------|-------------------|
B5 A5 B5 A5 PM| PM| PM| PM||------------------|--------------------||------------------|--------------------||------------------|--------------------||------4-------2---|------4--------2----||--2-2-2---0-0-0---|--2-2-2----0-0-0----||------------------|--------------------|
|
|------------------|--------------------||------------------|--------------------||------------------|--------------------||------------------|--------------------||--6-6-6---7-7-7-7-|--6-6-6-6--7-7-7-7--||------------------|--------------------|
|
|-11-------9-------|-11-------12--------||-12------10-------|-12-------14--------||------------------|--------------------||------------------|--------------------||------------------|--------------------||------------------|--------------------|
To Coda C#5B5 C#5 B5C#5 B5 A5 B5 F5 PM| PM| PM| PM||-------------------|-------------------|------------------|------------------|||-------------------|-------------------|------------------|------------------|||-------------------|----------------4--|------------------|------------------|||--6-4--6----6-4--6-|--(6)-------6------|------4-------2---|------4-----------|||--4-2--4----4-2--4-|--(4)-4-7-4---4----|--2-2-2---0-0-0---|--2-2-2--------3--|||-------------------|-------------------|------------------|-----------3-3-3--||
|
|-------------------|-------------------|------------------|------------------|||-------------------|-------------------|------------------|------------------|||-------------------|----------------4--|------------------|------------------|||-------------------|------------6------|------------------|------------------|||--7-6--7----7-6--7-|--(7)-4-7-4---4----|--6-6-6---7-7-7-7-|--6-6-6-6------3--|||-------------------|-------------------|------------------|-----------3-3-3--||
|
|-16--------11-9-21-|-(21)--------------|-14------12-------|-14---------------|||-16-------------21-|-(21)--------------|-16------14-------|-16-------13------|||-------------------|-------------------|------------------|----------14------|||-------------------|-------------------|------------------|------------------|||-------------------|-------------------|------------------|------------------|||-------------------|-------------------|------------------|------------------||
Verse E5D5E5 E5D5E5 E5 D5 PM-------------------------------|---------------|------------------|---------------------------------||---------------|------------------|---------------------------------||---------------|------------------|---------------------------------||-2-0-2---2-0-2-|-(2)-------9---7--|---------------------------------||-2-0-2---2-0-2-|-(2)-------7---5--|-----------------2-2-2-2-2-2-2-2-||-2-0-2---2-0-2-|-(2)-2-5-2--------|-2-2-2-2-4-4-5-5-----------------|
|
| PM-------------------------------|---------------|------------------|---------------------------------||---------------|------------------|---------------------------------||---------------|------------------|---------------------------------||-2-0-2---2-0-2-|-(2)-------5---4--|---------------------------------||-2-0-2---2-0-2-|-(2)--------------|-----------------2-2-2-2-2-2-2-2-||-2-0-2---2-0-2-|-(2)-2-5-2---2----|-2-2-2-2-4-4-5-5-----------------|
-------------------------------||------------------------------------||------------------------------------||------------------------------------||------------------------------------||-----------------0-0-0-0-0-0-0-0----||-0-0-0-0-4-4-2-2--------------------|
|
|-------------------------------||------------------------------------||------------------------------------||------------------------------------||------------------------------------||-----------------0-0-0-0-0-0-0-0----||-0-0-0-0-4-4-2-2--------------------|
E5D5E5 E5D5E5 D5 F5|---------------|-----------------||---------------|-----------------||---------------|-----------2--5--||-2-0-2---2-0-2-|-(2)-------0--3--||-2-0-2---2-0-2-|-(2)-------------||-2-0-2---2-0-2-|-(2)-2-5-2-------|
|
|---------------|-----------------||---------------|-----------------||---------------|-----------2--5--||-2-0-2---2-0-2-|-(2)-------0--3--||-2-0-2---2-0-2-|-(2)-------------||-2-0-2---2-0-2-|-(2)-2-5-2-------|
PM------------------------------------------------| ~~~|-----------------------------------|------------------------|||-----------------------------------|------------------------|||-----------------------------------|-----------------[8]----|||-------------------8-8-8-8-8-8-8-8-|------------------------|||-7-7-7-7-10-10-9-9-----------------|-5-5-5-5-8-8-7-7--------|||-----------------------------------|------------------------||
|
| PM------------------------------------------------| ~~~|-----------------------------------|------------------------|||-----------------------------------|------------------------|||-----------------------------------|------------------------|||-------------------8-8-8-8-8-8-8-8-|-----------------[6]----|||-7-7-7-7-10-10-9-9-----------------|-5-5-5-5-8-8-7-7--------|||-----------------------------------|------------------------||
Chorus F#5 E5||-----------------------|-------------------------|||o-----------------9----|-10----10-----9-----9----|||--11----11--9--11------|----11----11-----9-----9-|||-----11----------------|-------------------------|||o----------------------|-------------------------|||-----------------------|-------------------------|
|
||-----------------------|-------------------------|||o----------------------|-------------------------|||-----------------------|-11----11-----9-----9----|||---4--------2-------11-|----11----11----11----11-|||o--4--------2----------|-------------------------|||---4--------2----------|-------------------------|
|
| Gtr III||--21-------19----------|-14----14----12----12----|||o-22-------21-------14-|----14----14----14----14-|||-----------------------|-------------------------|||-----------------------|-------------------------|||o----------------------|-------------------------|||-----------------------|-------------------------|
D5 E5 C#5 E5|-------------------------|--------------------------|||-------------------9--10-|----------14-12----12-14-o|||-11----11--9--11---------|-13----13-------13--------|||----11-------------------|----11--------------------|||-------------------------|-------------------------o|||-------------------------|--------------------------||
|
|-------------------------|--------------------------|||-------------------------|-------------------------o|||-------------------------|--------------------------|||--7--------9------(9)----|--6-----------9-----------|||--5--------7------(7)----|--4-----------7----------o|||-------------------------|--------------------------||
|
|-17-------19-----(19)----|-16----------19-----------|||-19-------21-----(21)----|-17----------21----------o|||-------------------------|--------------------------|||-------------------------|--------------------------|||-------------------------|-------------------------o|||-------------------------|--------------------------||
Interlude F#5 Gtrs I, III PM| PM| PM PM PM PM PM|-------------------------|-------------------------||-------------------------|----------------12-------||----11-14----13-11----11-|----14----13----------13-||-11-------11-------14----|-11----11----11----11----||-------------------------|-------------------------||-------------------------|-------------------------|
|
|-------------------------|-------------------------||-------------------------|-------------------------||-------------------------|-------------------------||--4----------------------|--4----------------------||--4----------------------|--4----------------------||--4----------------------|--4----------------------|
PM| PM| PM PM PM PM|-------------------------|--------------------------||-------------------------|----------------12----14--||----11-14----13-11----11-|----14----13-------14-----||-11-------11-------14----|-11----11----11-----------||-------------------------|--------------------------||-------------------------|--------------------------|
|
|-------------------------|--------------------------||-------------------------|--------------------------||-------------------------|--------------------------||-------------------------|--------------------------||-------------------------|--------------------------||-------------------------|-----------2-----2-----2--|
N.C. PM| PM| PM PM PM PM PM|---------------------------|----------------------------||---------------------------|-------------------12-------||----11-14----13---11----11-|------14-----13----------13-||-11-------11---------14----|-11------11-----11----11----||---------------------------|----------------------------||---------------------------|----------------------------|
|
|---------------------------|----------------------------||---------------------------|----------------------------||---------------------------|----------------------------||---------------------------|----------------------------||---------------------------|--------------4-----4--4----||--4--4--4----(4)---2--2--2-|-(2)---4--------------------|
PM| PM| PM PM PM PM|--------------------------|------------------------------||--------------------------|--------------------12----14--||----11-14----13-11-----11-|------14-----13--------14-----||-11-------11-------14-----|-11------11-----11------------||--------------------------|------------------------------||--------------------------|------------------------------|
|
|--------------------------|------------------------------||--------------------------|------------------------------||--------------------------|------------------------------||--------------------------|------------------------------||--------------------------|------------------------------||-----0--0--0--0--2------2-|-(2)---4------4------2--2-----|
D.S. al Coda F#5 E5 F#5C#5 D5 E5 F#5 E5 Gtrs I, II||--------------------|------------------|---------------|-------------------||||o-------------------|------------------|---------------|------------------o||||--------------------|------------------|---------------|-------------------||||--------------------|---------6--6-6-6-|---------------|-------------------||||o-4-4-4--(4)--2-2-2-|-(2)--4--4--4-4-4-|--0-0-0-0-2--2-|-(2)--4--4--2-2---o||||--4-4-4--(4)--2-2-2-|-(2)--4-----------|--0-0-0-0-2--2-|-(2)--4--4--2-2----||
Intro revised & D5 Gtr I PM-----------------||-----------------------|----------------------------||-----------------------|----------------------------||-----------------------|----------------------------||-----------7-----------|----------------------------||-----------5-----------|----------------------------||--5--4--2------5--4--5-|-(5)--2--2--2--2-2--2--2--2-|
|
| Gtr II| PM-----------------||-----------------------|----------------------------||-----------------------|----------------------------||-----------------------|----------------------------||-----------0-----------|----------------------------||-----------0-----------|----------------------------||--5--4--2------5--4--5-|-(5)--2--2--2--2-2--2--2--2-|
|
| Gtr III|-12----12-10--12-14-10-|-12-----15----14------10-14-||----12-----------------|-----12----12------12-------||-----------------------|----------------------------||-----------------------|----------------------------||-----------------------|----------------------------||-----------------------|----------------------------|
E5 D5|-----------------------|-----------------------||-----------------------|-----------------------||-----------------------|-----------------------||-----------7-----------|-------7--------9---7--||-----------5--10--9--7-|--(7)----10--9--7---5--||--5--4--2--------------|-----------------------|
|
|-----------------------|-----------------------||-----------------------|-----------------------||---------------4--5--4-|--(4)--5--4------------||-----------0-----------|-------------7--5---4--||-----------0-----------|-----------------------||--5--4--2--------------|-----------------------|
|
|-12----12-10--12-14-12-|-(12)-17-15-14-12--10--||----12-----------------|-----------------------||-----------------------|-----------------------||-----------------------|-----------------------||-----------------------|-----------------------||-----------------------|-----------------------|
D5 ~~~~~~~~~~~ PM-----------------||------------------------|------------------------------||------------------------|------------------------------||------------------------|------------------------------||-----------7------------|------------------------------||-----------5------------|------------------------------||--5--4--2------5--4-[5]-|-([5])--2--2--2--2-2--2--2--2-|
|
| ~~~~~~~~~~~ PM-----------------||------------------------|------------------------------||------------------------|------------------------------||------------------------|------------------------------||-----------0------------|------------------------------||-----------0------------|------------------------------||--5--4--2------5--4-[5]-|-([5])--2--2--2--2-2--2--2--2-|
|
|-12----12-10--12-14-10--|--12------15----14------10-14-||----12------------------|-------12----12------12-------||------------------------|------------------------------||------------------------|------------------------------||------------------------|------------------------------||------------------------|------------------------------|
|-----------------------|------------------------||-----------------------|------------------------||-----------------------|------------------------||-----------7-----------|----------9--7-----7--9-||-----------5--10--9--7-|--9----9--------9-------||--5--4--2--------------|----9-------------------|
|
|-----------------------|------------------------||-----------------------|---------12-10----10-12-||-----------------------|-11---11-------11-------||-----------0---9--8--7-|----9-------------------||-----------0-----------|------------------------||--5--4--2--------------|------------------------|
|
|-12----12-10--12-14-10-|-14---------------------||----12-----------------|------------------------||-----------------------|------------------------||-----------------------|------------------------||-----------------------|------------------------||-----------------------|------------------------|
Chorus E5 D5||--------------------|-------------------------|||o--------------7----|--8-----8-----7-----7----|||---9---9--7--9------|-----9-----9-----7-----7-|||-----9--------------|-------------------------|||o-------------------|-------------------------|||--------------------|-------------------------|
|
||--------------------|-------------------------|||o-------------------|-------------------------|||--------------------|--9-----9-----7-----7----|||---2------0-------9-|-----9-----9-----9-----9-|||o--2------0---------|-------------------------|||---2------0---------|-------------------------|
|
||--19-----17---------|-12----12----10----10----|||o-20-----19------12-|----12----12----12----12-|||--------------------|-------------------------|||--------------------|-------------------------|||o-------------------|-------------------------|||--------------------|-------------------------|
C5 D5 B5 D5 4x|---------------------|--------------------------|||----------------7--8-|---------12-10----10-12--o|||--9---9--7--9--------|-11---11-------11---------|||----9----------------|----9---------------------|||---------------------|-------------------------o|||---------------------|--------------------------||
|
| 4x|---------------------|--------------------------|||---------------------|-------------------------o|||---------------------|--------------------------|||--5------7-----(7)---|--4----------7------------|||--3------5-----(5)---|--2----------5-----------o|||---------------------|--------------------------||
|
| 4x|-15-----17----(17)---|-14---------17------------|||-17-----19----(19)---|-15---------19-----------o|||---------------------|--------------------------|||---------------------|--------------------------|||---------------------|-------------------------o|||---------------------|--------------------------||
Guitar Solo - Alexi E5 D5 E5 D5 E5 Gtr V T|-------------------15h19-24p19p15----------15h19-||----------------17----------------17----17-------||-------------16----------------------16----------||----------17-------------------------------------||-------19----------------------------------------||-17h21-------------------------------------------|
|
| Gtr II| PM---||-------------------------------------------------||-------------------------------------------------||-------------------------------------------------||--2-----0-----2-----------------2-----0-----2----||--2-----0-----2-----------------2-----0-----2----||--2-----0-----2-----2-----2-----2-----0-----2----|
G5 D5|-20-19-17-15-19-17-15-14-17-15-14-12-------------||-------------------------------------15-13-12----||----------------------------------------------14-||-------------------------------------------------||-------------------------------------------------||-------------------------------------------------|
|
| PM---||-------------------------------------------------||-------------------------------------------------||-------------------------------------------------||--------------2-----------5-----------7----------||--------------2-----------5-----------5----------||--2-----2-----2-----2-----5-----5----------------|
E5 B5|-------------------------------------12-14-15----||-------------12----12-13-15-12-13-15----------17-||-12-11-12-14----14-------------------------------||-------------------------------------------------||-------------------------------------------------||-------------------------------------------------|
|
|-------------------------------------------------||-------------------------------------------------||--------------------------4----------------------||--2-----------------------4----------------------||--2-----------------------2----------------------||--2----------------------------------------------|
D5 A5 ~~~~~|-------------17-19-20-22-22b24----||-19-20-19-20----------------------||----------------------------------||----------------------------------||----------------------------------||----------------------------------|
|
|----------------------------------||----------------------------------||--------------------------2-------||--0-----------------------2-------||--0-----------------------0-------||--0-------------------------------|
E5 D5 E5 D5 E5|-15h19p15----------15-18p15----------15-19p15----||----------17----17----------17----17----------17-||-------------16----------------16----------------||-------------------------------------------------||-------------------------------------------------||-------------------------------------------------|
|
| PM---||-------------------------------------------------||-------------------------------------------------||-------------------------------------------------||--2-----0-----2-----------------2-----0-----2----||--2-----0-----2-----------------2-----0-----2----||--2-----0-----2-----2-----2-----2-----0-----2----|
D5 F5|-19-22p19----------19-20p19----------19-22p19----||----------20----20----------20----20----------20-||-------------21----------------21----------------||-------------------------------------------------||-------------------------------------------------||-------------------------------------------------|
|
| PM---||-------------------------------------------------||-------------------------------------------------||-------------------------------------------------||--------------2-----------7----------10----------||--------------2-----------5-----------8----------||--2-----2-----2-----2-----------0----------------|
E5 B5 D5 F5|-/24----------------18-20-|-22-17----------------17-||-----------------18-------|-------19----------18----||-----21-------19----------|----------17----17-------||--------21-20-------------|-------------19----------||--------------------------|-------------------------||--------------------------|-------------------------|
|
|--------------------------|-------------------------||--------------------------|-------------------------||---9----------------------|--7----------10----------||---9-----------9----------|--7----------10----------||---7-----------9----------|--5-----------8----------||---------------9----------|-------------------------|
Keyboard Solo - Janne E5 D5 E5 D5 E5 Gtr IV|-------------------------------------------------||-15-16-15-13----13-15-16-15-13----13-15-16-15-13-||-------------14----------------14----------------||-------------------------------------------------||-------------------------------------------------||-------------------------------------------------|
|
| PM---||-------------------------------------------------||-------------------------------------------------||-------------------------------------------------||--2-----0-----2-----------------2-----0-----2----||--2-----0-----2-----------------2-----0-----2----||--2-----0-----2-----2-----2-----2-----0-----2----|
G5 D5|-------------------------------------------------||----13-15-16-15-13----13-15-16-15-13----13-15-16-||-14----------------14----------------14----------||-------------------------------------------------||-------------------------------------------------||-------------------------------------------------|
|
| PM---||-------------------------------------------------||-------------------------------------------------||-------------------------------------------------||--------------2-----------5-----------7----------||--------------2-----------5-----------5----------||--2-----2-----2-----2-----5-----5----------------|
E5 B5|-------------------------------------------------||-18-20-18-15----15-18-20-18-15----15-18-20-18-15-||-------------17----------------17----------------||-------------------------------------------------||-------------------------------------------------||-------------------------------------------------|
|
|-------------------------------------------------||-------------------------------------------------||--------------------------4----------------------||--2-----------------------4----------------------||--2-----------------------2----------------------||--2----------------------------------------------|
D5 A5|-20-------20-15----------15-20-15----------15-20-||----15-17-------17----17----------17----17-------||-------------------17----------------17----------||-------------------------------------------------||-------------------------------------------------||-------------------------------------------------|
|
|-------------------------------------------------||-------------------------------------------------||--------------------------2----------------------||--0-----------------------2----------------------||--0-----------------------0----------------------||--0----------------------------------------------|
E5 D5 E5 D5 E5|-24-24-24-24-24-24-24-22-24-24-24-24-24-24-24-22-||-------------------------------------------------||-------------------------------------------------||-------------------------------------------------||-------------------------------------------------||-------------------------------------------------|
|
| PM---||-------------------------------------------------||-------------------------------------------------||-------------------------------------------------||--2-----0-----2-----------------2-----0-----2----||--2-----0-----2-----------------2-----0-----2----||--2-----0-----2-----2-----2-----2-----0-----2----|
D5 F5|-24-24-24-24-24-24-24-22-24-24-24-24-24-24-24-22-||-------------------------------------------------||-------------------------------------------------||-------------------------------------------------||-------------------------------------------------||-------------------------------------------------|
|
| PM---||-------------------------------------------------||-------------------------------------------------||-------------------------------------------------||--------------2-----------7----------10----------||--------------2-----------5-----------8----------||--2-----2-----2-----2-----------0----------------|
E5 B5|-25-27-29b30-29b32==(29)r27-25----27-25-------------------||-------------------------------27-------27-25-23-27-25-23-||----------------------------------------------------------||----------------------------------------------------------||----------------------------------------------------------||----------------------------------------------------------|
|
|----------------------------------------------------------||----------------------------------------------------------||--9-------------------------------------------------------||--9--------------------------------9----------------------||--7--------------------------------9----------------------||-----------------------------------9----------------------|
D5 F5|-------------------------------------------25-27-|||-------------------------23-------23-25-27-------|||-24-22----24-22----22-24----22-24----------------|||-------24-------24-------------------------------|||-------------------------------------------------|||-------------------------------------------------||
|
|-------------------------------------------------|||-------------------------------------------------|||--7----------------------------------------------|||--7-----------------------3----------------------|||--5-----------------------3----------------------|||--------------------------3----------------------||
Guitar Solo 2 - Alexi F#5 E5 F#5 E5 F#5 C#5 A5|-29-------------------------------|---------------------------------||----------------------------------|---------------------------------||----------------------------------|---------------------------------||----------------------------------|---------------------------------||----------------------------------|---------------------------------||----------------------------------|---------------------------------|
|
| Gtr V|----------------------14-16-16b17r|=(16)----------------------14-17-||-17b19-14-17b19-14-17-------------|------17b19-14-17b19-14-17-------||----------------------------------|---------------------------------||----------------------------------|---------------------------------||----------------------------------|---------------------------------||----------------------------------|---------------------------------|
|
| Gtr II| PM| PM-| PM PM|----------------------------------|---------------------------------||----------------------------------|---------------------------------||----------------------------------|----------------------6----------||--4-----2--4-----------4--2--4----|-------------4--------6-----7----||--4-----2--4-----------4--2--4----|-------------4--------4-----7----||--4-----2--4-----4--4--4--2--4----|---4---4-----4--4--------4--7----|
E5 D5|-------------------------------------------------||-------------------------------------------------||-------------------------------------------------||-------------------------------------------------||-------------------------------------------------||-------------------------------------------------|
|
|-16h17p16-14----14-16h17p16-14----14-16h17p16-14-||-------------17----------------17----------------||-------------------------------------------------||-------------------------------------------------||-------------------------------------------------||-------------------------------------------------|
|
| PM---| PM---||-------------------------------------------------||-------------------------------------------------||-------------------------------------------------||--------------2-----2-----------------0-----0----||--------------2-----2-----------------0-----0----||--2-----2-----2-----2-----0-----0-----0-----0----|
E5 D5 Gtr V|-19h21p19-17----17-19h21p19-17----------------17-||-------------21----------------21-19-17-19-21----||-------------------------------------------------||-------------------------------------------------||-------------------------------------------------||-------------------------------------------------|
|
| Gtr II| PM---| PM---||-------------------------------------------------||-------------------------------------------------||-------------------------------------------------||--------------2-----2-----------------0-----0----||--------------2-----2-----------------0-----0----||--2-----2-----2-----2-----0-----0-----0-----0----|
F#5E5 F#5 E5 F#5|-14---------14---------14-------||----17b19------17b19------17b19-||--------------------------------||--------------------------------||--------------------------------||--------------------------------|
|
| PM||--------------------------------||--------------------------------||--------------------------------||--4--2----4----------4--2--4----||--4--2----4----------4--2--4----||--4--2----4--4--4----4--2--4----|
C#5 A5|-------------------------------------||-17-14-15-17-14-15-14----------------||----------------------17-16-15-14----||----------------------------------16-||-------------------------------------||-------------------------------------|
|
| PM| PM PM|-------------------------------------||-------------------------------------||-----------------6-------------------||--------4--------6-----------7-------||--------4--------4-----------7-------||--4--4--4--4-----------4-----7-------|
E5 D5 E5 D5 / ~~|-------------------------------------|--------------------------||-14-------14-------14-------14-------|--------[17]---([17])-----||-14----16-14----16-14----16-14----16-|-14-----------------------||----16-------16-------16-------16----|--------------------------||-------------------------------------|--------------------------||-------------------------------------|--------------------------|
|
| PM| PM| PM| PM||-------------------------------------|--------------------------||-------------------------------------|--------------------------||-------------------------------------|--------------------------||-----------2--2--------------0--0----|------2---2-----------0-0-||-----------2--2--------------0--0----|------2---2-----------0-0-||--2--2-----2--2-----0--0-----0--0----|--2-2-2---2--0----0---0-0-|
Keyboard Solo 2 F#5 E5 F#5 E5 F#5 C#5 A5|-----------------------------|---------------------------------||-([17])----------------------|---------------------------------||-----------------------------|---------------------------------||-----------------------------|---------------------------------||-----------------------------|---------------------------------||-----------------------------|---------------------------------|
|
| Gtr IV|--------17-17-16-16----------|------17-17-16-19-17-19-17-16----||---19---------------17-17-19-|-(19)-------------------------17-||-----------------------------|---------------------------------||-----------------------------|---------------------------------||-----------------------------|---------------------------------||-----------------------------|---------------------------------|
|
| Gtr II| PM PM PM|-----------------------------|---------------------------------||-----------------------------|---------------------------------||-----------------------------|----------------6----------------||----4----2--4-----------2--4-|--(4)-----4-----6--------7-------||----4----2--4-----------2--4-|--(4)-----4-----4--------7-------||----4----2--4-----------2--4-|--(4)--4--4--4-----4-----7-------|
E5 D5|---------------------------------||---------------------------------||---------------------------------||---------------------------------||---------------------------------||---------------------------------|
|
|--------16-17-16----------16-17--||-(17)------------19-17-19--------||---------------------------------||---------------------------------||---------------------------------||---------------------------------|
|
| PM-| PM||---------------------------------||---------------------------------||---------------------------------||---------2-----2-----------0--0--||---------2-----2-----------0--0--||---2--2--2-----2-----0--0--0--0--|
E5 D5 F#5 E5F#5 E5 F#5 Gtr IV|-19-21-22-24-26-24-29-24-|-24b26------15b17------17b19---||-------------------------|-------------------------------||-------------------------|---------21---------21---------||-------------------------|-------------------------------||-------------------------|-------------------------------||-------------------------|-------------------------------|
|
| Gtr II| PM| PM| PM---||-------------------------|-------------------------------||-------------------------|-------------------------------||-------------------------|-------------------------------||--------2--2--------0--0-|--4----2--4----------4--2----4-||--------2--2--------0--0-|--4----2--4----------4--2----4-||--2--2--2--2--0--0--0--0-|--4----2--4--4----4--4--2----4-|
C#5 A5|----19b21------20b21----14-16-||---------------------17-------||-21---------21----------------||------------------------------||------------------------------||------------------------------|
|
| PM| PM PM|------------------------------||------------------------------||----------------6-------------||----------4-----6--------7----||----------4-----4--------7----||--4--4----4--4--------4--7----|
E5 D5|-21-19-17----------------------------------------||----------21-19-17-------------------17----------||-------------------19-18-16----16-18----19-18-16-||----------------------------19-------------------||-------------------------------------------------||-------------------------------------------------|
|
| PM---| PM---||-------------------------------------------------||-------------------------------------------------||-------------------------------------------------||--------------2-----2-----------------0-----0----||--------------2-----2-----------------0-----0----||--2-----2-----2-----2-----0-----0-----0-----0----|
E5 D5|-------------------------------------------------|||-------------17----------------------------------|||----------------19-18-16-------------------------|||-19-18-16-14-------------18-16-------------------|||-------------------------------17-14-15b17r12b14-|||-------------------------------------------------||
|
| PM---| PM---||-------------------------------------------------|||-------------------------------------------------|||-------------------------------------------------|||--------------2-----2-----------------0-----0----|||--------------2-----2-----------------0-----0----|||--2-----2-----2-----2-----0-----0-----0-----0----||
C#5|------------------------|-------------15b17----------|||-14-------(14)----------|-14-13-12-11-13b15----------|||---------------11-12-13-|----------------------------|||------------------------|----------------------------|||------------------------|----------------------------|||------------------------|----------------------------||
|
| Gtr II| PM------||------------------------|----------------------------|||------------------------|----------------------------|||------------------------|--6--5--4--3--5b7r==(5)b7---|||--------6---6---6--5--4-|----------------------------|||--4-4-4-4---4-----------|----------------------------|||------------------------|----------------------------||
|
| Gtr I| PM------||------------------------|----------------------------|||------------------------|----------------------------|||------------------------|--6--5--4--3--9b10r=(9)b10--|||--------6---6---6--5--4-|----------------------------|||--4-4-4-4---4-----------|----------------------------|||------------------------|----------------------------||
Out-Chorus F#5 E5 F#5C#5 D5 E5 F#5 E5 Gtrs I, II||--------------------|------------------|---------------|-------------------||||o-------------------|------------------|---------------|------------------o||||--------------------|------------------|---------------|-------------------||||--------------------|---------6--6-6-6-|---------------|-------------------||||o-4-4-4--(4)--2-2-2-|-(2)--4--4--4-4-4-|--0-0-0-0-2--2-|-(2)--4--4--2-2---o||||--4-4-4--(4)--2-2-2-|-(2)--4-----------|--0-0-0-0-2--2-|-(2)--4--4--2-2----||
F#5 E5 F#5 C#5 Gtrs I, III PM| PM| PM PM PM PM PM|---------------------------|----------------------------||---------------------------|-------------------12-------||----11-14----13---11----11-|------14-----13----------13-||-11-------11---------14----|-11------11-----11----11----||---------------------------|----------------------------||---------------------------|----------------------------|
|
| Gtr II|---------------------------|----------------------------||---------------------------|----------------------------||---------------------------|----------------------------||---------------------------|--------------6-----6--6--6-||--4--4--4----(4)---2--2--2-|-(2)---4------4-----4--4--4-||--4--4--4----(4)---2--2--2-|-(2)---4--------------------|
D5 E5 F#5 E5 PM| PM| PM PM PM PM|--------------------------|------------------------------||--------------------------|--------------------12----14--||----11-14----13-11-----11-|------14-----13--------14-----||-11-------11-------14-----|-11------11-----11------------||--------------------------|------------------------------||--------------------------|------------------------------|
|
|--------------------------|------------------------------||--------------------------|------------------------------||--------------------------|------------------------------||--------------------------|------------------------------||-----0--0--0--0--2------2-|-(2)---4------4------2--2-----||-----0--0--0--0--2------2-|-(2)---4------4------2--2-----|
F#5 E5 F#5 C#5 PM| PM| PM PM PM PM PM|---------------------------|----------------------------||---------------------------|-------------------12-------||----11-14----13---11----11-|------14-----13----------13-||-11-------11---------14----|-11------11-----11----11----||---------------------------|----------------------------||---------------------------|----------------------------|
|
|---------------------------|----------------------------||---------------------------|----------------------------||---------------------------|----------------------------||---------------------------|--------------6-----6--6--6-||--4--4--4----(4)---2--2--2-|-(2)---4------4-----4--4--4-||--4--4--4----(4)---2--2--2-|-(2)---4--------------------|
D5 E5 F#5 E5 PM| PM| PM PM PM PM|--------------------------|------------------------------*||--------------------------|--------------------12----17--*||----11-14----13-11-----11-|------14-----13--------14-----*||-11-------11-------14-----|-11------11-----11------------*||--------------------------|------------------------------*||--------------------------|------------------------------*|
|
|--------------------------|------------------------------*||--------------------------|------------------------------*||--------------------------|------------------------------*||--------------------------|------------------------------*||-----0--0--0--0--2------2-|-(2)---4------4------2--2-----*||-----0--0--0--0--2------2-|-(2)---4------4------2--2-----*|
** G
Tap to rate this tab
 
# A B C D E F G H I J K L M N O P Q R S T U V W X Y Z