Chimaira - Army Of Me tab

-------------------------------------------------------------------------------
			     Army of Me - Chimaira
-------------------------------------------------------------------------------
Tabbed by: metalmonkey147
Email:

Tuning: Drop C

|---------------------------------------------------------------------------||---------------------------------------------------------------------------||-----------------6--5--------9-8-------7--6------11--10----------14-13-----||-------7--6------------5--6------------------6-7---------10--11------------||-4--5--------6-7-----------------4--5--------------------------------------||---------------------------------------------------------------------------|
|---------------------------------------------------------------------------||---------------------------------------------------------------------------||-----------------6--5--------9-8-------7--6------11--10----------13tr14----||-------7--6------------5--6------------------6-7---------10--11------------||-4--5--------6-7-----------------4--5--------------------------------------||---------------------------------------------------------------------------|
|---------------------------------------------------------------------------||---------------------------------------------------------------------------|\|---------------------------------------------------------------------------| \|---------------------------------------------------------------------------| \|-0-0-0-0-0-0-0-0-0-0-0-0-0-0-0-0-0-6p5--5p4--1h4--5\4--1/4\1---------------| \|-0-0-0-0-0-0-0-0-0-0-0-0-0-0-0-0-0------5p4--1h4--5\4--1/4\1---------------| |
. . . . . . . . . . . . . . . | | x4|---------------------------------------------------------------------------| ||---------------------------------------------------------------------------| /|---------------------------------------------------------------------------| /|---------------7-----------------------------------------------------------| /|-0-0-0-0-0-0-0-5-0-0-0-0-0-0-0-0-0-6p5--5p4--1h4--5\4--1/4\1---------------|/|-0-0-0-0-0-0-0---0-0-0-0-0-0-0-0-0------5p4--1h4--5\4--1/4\1---------------| . . . . . . . . . . . . . . .
|---------------------------------------------------------------------------||---------------------------------------------------------------------------||-----------------6--5--------9-8-------5--4~-----9--8--------11tr12--------||-------7--6~-----------5--6------------------4-5-------8--9----------------||-4--5--------6-7-----------------4--5--------------------------------------||---------------------------------------------------------------------------|
|---------------------------------------------------------------------------||---------------------------------------------------------------------------|\|---------------------------------------------------------------------------| \|---------------------------------------------------------------------------| \|-0-0-0-0-0-0-0-0-0-0-0-0-0-0-0-0-0-6p5--5p4--1h4--5\4--1/4\1---------------| \|-0-0-0-0-0-0-0-0-0-0-0-0-0-0-0-0-0------5p4--1h4--5\4--1/4\1---------------| |
. . . . . . . . . . . . . . . | | x2|---------------------------------------------------------------------------| ||---------------------------------------------------------------------------| /|---------------------------------------------------------------------------| /|---------------7-----------------------------------------------------------| /|-0-0-0-0-0-0-0-5-0-0-0-0-0-0-0-0-0-6p5--5p4--1h4--5\4--1/4\1---------------|/|-0-0-0-0-0-0-0---0-0-0-0-0-0-0-0-0------5p4--1h4--5\4--1/4\1---------------| . . . . . . . . . . . . . . .
|---------------------------------------------------------------------------||---------------------------------------------------------------------------||---------------------------------------------------------------------------||-------------------------------------------------------------5b~-----------| x3|-000-000-000-000-000-000-000-000-000-000-000-000-000-000-000---------------||-000-000-000-000-000-000-000-000-000-000-000-000-000-000-000---------------|
... ... ... ... ... ... ... ... ... ... ... ... ... ... ... *|---------------------------------------------------------------------------||---------------------------------------------------------------------------||---------------------------------------------------------------------------||---------------------------------3---3---3---3---3---5p3-3br-1-------------||-000-000-000-000-000-000-000-000-3---3---3---3---3---5p3-3br-1-------------||-000-000-000-000-000-000-000-000-------------------------------------------|
... ... ... ... ... ... ... ...|-----------------------------------------------------||-----------------------------------------------------||-----------------------------------------------------||-1----0----1----0----1--0--4----3----4----3----4--3--| x2|-1----0----1----0----1--0--4----3----4----3----4--3--||-1----0----1----0----1--0--4----3----4----3----4--3--|
|-----------------------------------------------------| |---------------||-----------------------------------------------------| |---------------||-8----7----8----7----8--7--11---10---11---10---11-10-| |---------------||-X----X----X----X----X--X--X----X----X----X----X--X--| x2 |-0----(0)--0-0-||-6----5----6----5----6--5--9----8----9----8----9--8--| |-0----(0)--0-0-||-----------------------------------------------------| |-0----(0)--0-0-|
. .|-----------------------------------||-----------------------------------||-----------------------------------||-----------------------------------||-000-000-000-000-000-000-0-333333--||-000-000-000-000-000-000-0-333333--| ... ... ... ... ... ... . ......
|-------------------14pbr\--||---------------------------||---------------------------||---------------------------||-000-000-000-000-----------||-000-000-000-000-----------| ... ... ... ...
============================================================================= Guitar #1 solo
|---------------------------------------------------------------------------||--15p14h15-15p14h15-18p14h15-15p14h15-15p14h15-15p14h15-18p14h15-15p14h15--||---------------------------------------------------------------------------||---------------------------------------------------------------------------||---------------------------------------------------------------------------||---------------------------------------------------------------------------|
|-----------------------------------18b---21b-------||-18-15-14----14------------------------------------||----------15----15-13-13tr14-13\-------------------||---------------------------------------------------||---------------------------------------------------||---------------------------------------------------| (w/ whammy bar)
|-12121212-13131313-16161616-1515151515151515-16161616-20202020-19191919----||---------------------------------------------------------------------------||---------------------------------------------------------------------------||---------------------------------------------------------------------------||---------------------------------------------------------------------------||---------------------------------------------------------------------------|
|-------------------------------------------------------||---------16--15~~------/19--18----------22--21b===r----||-12--13----------14-15----------17--18-----------------||-------------------------------------------------------||-------------------------------------------------------||-------------------------------------------------------|
|----22p21p20-20p19p18-18p19p17-17p16p15-15p14p12-12p10p9-----||-------------------------------------------------------------||-------------------------------------------------------------||-------------------------------------------------------------||-------------------------------------------------------------||-------------------------------------------------------------|
Guitar #2 under solo|-----------------------------------||-----------------------------------||-----------------------------------||-----------------------------------| x7|-000-000-000-000-000-000-0-1-1-1---||-000-000-000-000-000-000-0-1-1-1---| ... ... ... ... ... ... . . . .
|-----------------------------------||-----------------------------------||-----------------------------------||-----------------------------------||-333-333-3-------4-------5---------||-333-333-3-------4-------5---------| ... ...
=============================================================================
|---------------------------------------------------------------------------||---------------------------------------------------------------------------||---------------------------------------------------------------------------||-------------------------------------------------------------5b~-----------| x3|-000-000-000-000-000-000-000-000-000-000-000-000-000-000-000---------------||-000-000-000-000-000-000-000-000-000-000-000-000-000-000-000---------------|
... ... ... ... ... ... ... ... ... ... ... ... ... ... ... *|---------------------------------------------------------------------------||---------------------------------------------------------------------------||---------------------------------------------------------------------------||---------------------------------3---3---3---3---3---5p3-3br-1-------------||-000-000-000-000-000-000-000-000-3---3---3---3---3---5p3-3br-1-------------||-000-000-000-000-000-000-000-000-------------------------------------------| ... ... ... ... ... ... ... ...
|-----------------------------------------------------||-----------------------------------------------------||-----------------------------------------------------||-1----0----1----0----1--0--4----3----4----3----4--3--| x2|-1----0----1----0----1--0--4----3----4----3----4--3--||-1----0----1----0----1--0--4----3----4----3----4--3--|
|-----------------------------------------------------||-----------------------------------------------------||-8----7----8----7----8--7--11---10---11---10---11-10-||-X----X----X----X----X--X--X----X----X----X----X--X--| x2|-6----5----6----5----6--5--9----8----9----8----9--8--||-----------------------------------------------------|
|------------------||------------------||------------------||--8p7---------3---| x7|-------5p4-0------||------------------|
|------------------||------------------||------------------||--8p7-------------||-------5p4-0------||------------------|
|---------------------------------------------------------------------------------------------||---------------------------------------------------------------------------------------------||---------------------------------------------------------------------------------------------||--------------------------------------------------------------------------------------7b~~---||-0-0--0-0--0--0-0---0-0--0-0--0--0--0-0---0-0--0-0--0--0--0-0---0-0--0-0--0--0--0-0----------||-0-0--0-0--0--0-0---0-0--0-0--0--0--0-0---0-0--0-0--0--0--0-0---0-0--0-0--0--0--0-0----------| . . . . . . . . . . . . . . . . . . . . . . . . . . . . . . . *
|----------------------------------------------------------------------------------||----------------------------------------------------------------------------------||----------------------------------------------------------------------------------||----------------------------------------------------------------------------------||-0-0--0--0--0-0---0-0--0-0--0--0--0-0---0-0--0-0--0--0--0-0---0-0--0-0--0--0--0-0-||-0-0--0--0--0-0---0-0--0-0--0--0--0-0---0-0--0-0--0--0--0-0---0-0--0-0--0--0--0-0-| . . . . . . . . . . . . . . . . . . . . . . . . . . . . . .
************************************ | . palm mute | / slide up | \ slide down | h hammer-on | p pull-off | tr trill | ~ vibrato | * harmonic | x Mute note | b Bend | pb Pre-bend | br Bend release | pbr Pre-bend release | brb Bend release bend ************************************
Tap to rate this tab
 
# A B C D E F G H I J K L M N O P Q R S T U V W X Y Z