Chiodos - All Nereids Beware tab

Chiodos - All Nereids Beware

(intro)

|-------------------------------------------------------------------------------------------------||-------------------------------------------------------------------------------------------------||----------7-7-----7-7-----------7---------------7h8p7-----------10-8-7-8-7--------22---22-----2--||----------8-8-----8-8-----------8------77---77-------8------55---x-x-x-x-x--------33---44-----4--||--101010-1010-10-1010-10-10101010-8888-88-8-88-8-------6666-66-6-8-6-5-6-5---5555-55-5-55-55555--||---------------------------------------------------------------0---------------------------------|(x2)
|----------------------------------------------------||----------------------------------------------------||----------------------------------------------------||--5----3----1----3--4------5----3----1----3--4------||--5----3----1----3--4------5----3----1----3--4------||--5----3----1----3--4------5----3----1----3--4------|
|----------------------------------------------------||----------------------------------------------------||---------------------------------------//////-------||--5\\\\-----------x-x-x-x--------------pick scrape--||--3\\\\-----------x-x-x-x--------------//////-------||------------------x-x-x-x---------------------------|
|-------------------------------------------------||-------------------------------------------------||-------------------------------------------------||--4\\\\-----------x-x-x-x------------------------||--5\\\\-----------x-x-x-x---------12/------------||------------------x-x-x-x---------12/------------|
(verse)
|-----------------------------------------------------------------------------||-----------------------------------------------------------------------------||--7-7-x-77-8-8-x-88-1010x10101111-1111-7-7-x-77-8-8-x-88-1010x10101111-1111--||--x-x-x-xx-x-x-x-xx-x-x-x-xx-x-x-x-xx--x-x-x-xx-x-x-x-xx-x-x-x-xx-x-x-x-x----||--5-5-x-55-6-6-x-66-8-8-x-88-9-9-x-99--5-5-x-55-6-6-x-66-8-8-x-88-9-9-x-99---||-----------------------------------------------------------------------------|(x2)
|-----------------------------------------------------------------------------||-----------------------------------------------------------------------------||-----------------------------------------------------------------------------||--0-0-x-00-1-1-x-11-3-3-x-33-4-4-x-44--0-0-x-00-1-1-x-11-3-3-x-33-4-4-x-44---||--0-0-x-00-1-1-x-11-3-3-x-33-4-4-x-44--0-0-x-00-1-1-x-11-3-3-x-33-4-4-x-44---||--0-0-x-00-1-1-x-11-3-3-x-33-4-4-x-44--0-0-x-00-1-1-x-11-3-3-x-33-4-4-x-44---|(x2)
(chorus)|--------------------------------------------------------------||--------------------------------------------------------------||-----7h8h10p7----7h8h10p7---------7h8h10p7---7h8h10p----------||----8--------8--8--------8--8----8--------8-8-------8-8-------||--10----------10----------10-10-8----------8---------8-8------||--------------------------------------------------------------|(x4)
|-----------------------------------------------||-----------------------------------------------||-----------------------------------------------||--55-55-5-5--33-33-3-3--55-55-5-5--33-3-3------||--55-55-5-5--33-33-3-3--55-55-5-5--33-3-3------||--55-55-5-5--33-33-3-3--55-55-5-5--33-3-3------|(x2)
(breakdown?)
|-------16----------------------------------------------||---------15--15---9-9-9-9-9-9-9-9-10101010101010-------||-----------13-----7-7-7-7-7-7-7-7-8-8-8-8-8-8-8--------||--0~---------------------------------------------------||--0~---------------------------------------------------||--0~---------------------------------------------------|
|-------------------------------------------------------------------14--14-------||--101010101010101013-13-13-13-13-13-13-13-9-9-9-9-9-9-9-9-10101010---13--13-----||--8-8-8-8-8-8-8-8-11-11-11-11-11-11-11-11-7-7-7-7-7-7-7-7-8-8-8-8---------------||--------------------------------------------------------------------------------||--------------------------------------------------------------------------------||--------------------------------------------------------------------------------|
|----------------||----------------||----------------||--0~--00-0~-----||--0~--00-0~-----||--0~--00-0~-----|
|-------------------------------------------------------------------------------||-------------------------------------------------------------------------------||-------------------------------------------------------------------------------||--0000-00-0-0000-00-0-5555-55-3333-33--0000-00-0-0000-00-0-5555-55-5-7777-77---||--0000-00-0-0000-00-0-5555-55-3333-33--0000-00-0-0000-00-0-5555-55-5-7777-77---||--0000-00-0-0000-00-0-5555-55-3333-33--0000-00-0-0000-00-0-5555-55-5-7777-77---|
|--------------------------------------------------------------------||------------------------15-15-------------------------15-15---------||--7-77-9-99-101414------13-13---7-77-9-99-101412------13-13---------||--x-xx-x-xx-x--x-x-0000---------x-xx-x-xx-x--x-x-0000---------------||--5-55-7-77-8-1212-0000---------5-55-7-77-8-1210-0000---------------||-------------------0000--------------------------0000---------------|
(verse2)
|-----------------------------------------------------------------------------------------||-----------------------------------------------------------------------------------------||--h12p0h14p0h15p0h14p0h14p0h15p0h17p0h15p0h15p0h20p0h19p0h17p0h15p0h17p0h15p0h14p0-12~~~-||-----------------------------------------------------------------------------------------||-----------------------------------------------------------------------------------------||-----------------------------------------------------------------------------------------|(x3)
|--------------------------------------------------------------------------------------||--------------------------------------------------------------------------------------||----------7-7-x-77-8-8-x-88-1010x10101111-1111-7-7-x-77-8-8-x-88-1010x10101111-1111---||--0-1-3-4-x-x-x-xx-x-x-x-xx-x-x-x-xx-x-x-x-xx--x-x-x-xx-x-x-x-xx-x-x-x-xx-x-x-x-xx----||--0-1-3-4-5-5-x-55-6-6-x-66-8-8-x-88-9-9-x-99--5-5-x-55-6-6-x-66-8-8-x-88-9-9-x-99----||--0-1-3-4-----------------------------------------------------------------------------|
(piano)
|-----------------55555555555555555555555555555555-----------||-----------------88888888666666668888888866666666-----------||-----------------77777777777777777777777777777777-----------||------------------------------------------------------------||------------------------------------------------------------||------------------------------------------------------------|
|--5----5----5------------------------------5----5----5------||----6----6--------888888886666666688888888---6----6---------||------7----7---7--777777777777777777777777-----7----7---7---||------------------------------------------------------------||------------------------------------------------------------||------------------------------------------------------------|
|--15151515151515151717171718181717181818181818181820p15-------------------------------------------||--151515151515151515151515151515151515151515151515-----t20p15t20p15t20p15t20p15t20p15t20p15t20p15-||--------------------------------------------------------------------------------------------------||--------------------------------------------------------------------------------------------------||--------------------------------------------------------------------------------------------------||--------------------------------------------------------------------------------------------------|
|--55555555555555555555555555555555555555555555555555555555-5----5----5------||--88888888666666668888888866666666888888886666666688888888---6----6---------||--77777777777777777777777777777777777777777777777777777777-----7----7---7---||----------------------------------------------------------------------------||----------------------------------------------------------------------------||----------------------------------------------------------------------------|
(chorus2)
|------------------------------------------------------------------------------------------||------------------------------------------------------------------------------------------||---7-7--7-7--7-7--7-7--7--7-------------------7-7--7-7--7-7--7-7--7--7--------------------||---8-8--8-8--8-8--8-8--8--8-77-77-77-77-7-7---8-8--8-8--8-8--8-8--8--8-77-77-77-77-7-7----||--1010-1010-1010-1010-10-10-88-88-88-88-8-8--1010-1010-1010-1010-10-10-88-88-88-88-8-8----||------------------------------------------------------------------------------------------|
|--------------------------------------------------------------------||--------------------------------------------------------------------||--------------------------------------------------------------------||--55-55-55-55-5-5-33-33-33-33-3-3-55-55-55-55-5-5-33-33-33-33-33----||--55-55-55-55-5-5-33-33-33-33-3-3-55-55-55-55-5-5-33-33-33-33-33----||--55-55-55-55-5-5-33-33-33-33-3-3-55-55-55-55-5-5-33-33-33-33-33----|
|--------------------------------------------------------------||--------------------------------------------------------------||-----7h8h10p7----7h8h10p7---------7h8h10p7---7h8h10p----------||----8--------8--8--------8--8----8--------8-8-------8-8-------||--10----------10----------10-10-8----------8---------8-8------||--------------------------------------------------------------|(x2)
|--------------------------------------------------||--------------------------------------------------||--------------------------------------------------||--5---5---3---3---5---5---3---3-------------------||--5---5---3---3---5---5---3---3-------------------||--5---5---3---3---5---5---3---3-------------------|
(bridge)
|----------------------------------------------------------------------------------------------------||----------------------------------------------------------10101010101010----------10101010101010----||--------------------------9999999-7-77777-7-7777--9999999-8-88888-8-8888--9999999-8-88888-8-8888----||--0-000------0~--0~-------8888888-6-66666-6-6666--8888888-----------------8888888-------------------||--0-000-9*~~-0~--0~---------------5-55555-5-5555----------------------------------------------------||--0-000------0~--0~---------------------------------------------------------------------------------|
|----------------------------------------------------------------------------------------------------||-----------------9999999----------10101010101010----------10101010101010----------10101010101010----||-----------------7777777--9999999-8-88888-8-8888--9999999-8-88888-8-8888--9999999-8-88888-8-8888----||--------------------------8888888-----------------8888888-----------------8888888-------------------||----------------------------------------------------------------------------------------------------||----------------------------------------------------------------------------------------------------|
|--------------------------------------------------------------||-------9-------9------9-------9-------------------------------||-------7-------7------7-------7-------------------------------||--0-00---00-00---0-00---00-00------0000---0000----------------||--0-00---00-00---0-00---00-00------0000---0000---12\----------||--0-00---00-00---0-00---00-00------0000---0000---12\----------|
|--------------------------------------------------------------||-------9------15------9-------15------------------------------||-------7------13------7-------13------------------------------||--0-00---00-00---0-00---00-00------0000---0000----------------||--0-00---00-00---0-00---00-00------0000---0000---12\----------||--0-00---00-00---0-00---00-00------0000---0000---12\----------|
(outro)
|----------------------------------------------------------------------------------------------14--15--16--17-----||------------------------------------------------------------------------------------------------13--14--15--16---||--------14-------------14/15--------14---14/15---15------------14-------------14/15--------14--------------------||--00-00--x-000-000-000--x--x--00-00--x-0--x--x-0--x------00-00--x-000-000-000--x--x--00-00--x--------------------||--00-00-12-000-000-000-12/13--00-00-12-0-12/13-0-13-11*--00-00-12-000-000-000-12/13--00-00-12--------------------||--00-00----000-000-000--------00-00----0-------0---------00-00----000-000-000--------00-00-----------------------|
|--------------------------------------10--------------------------------------------------||---------10-------------10-------10------14----/16\----------10------------10-------------||---------8---------------8--------8----------------5---------8-------------8--------------||--00-00----000-000-000-----00-00----0-------0---------00-00----000-000-000----00-00-------||--00-00----000-000-000-----00-00----0-------0---------00-00----000-000-000----00-00-------||--00-00----000-000-000-----00-00----0-------0---------00-00----000-000-000----00-00-------|
|--------------------------------------------------------------------||--------------------------------------------------------------------||--------14-------------14/15--------14---14/15---14/12/11-----------||--00-00--x-000-000-000--x--x--00-00--x-0--x--x-0--x--x-x------------||--00-00-12-000-000-000-12/13--00-00-12-0-12/13-0-12/10/9------------||--00-00----000-000-000--------00-00----0-------0--------------------|
|------------------------------------------------------------------------------------------------------||--101010101010101013-13-13-13-19-19-19-19--101010101010101013-13-13-13-19-19-19-19--------------------||--8-8-8-8-8-8-8-8-11-11-11-11-17-17-17-17--8-8-8-8-8-8-8-8-11-11-11-11-17-17-17-17--/14---------------||----------------------------------------------------------------------------------------13-12-12/-17~-||------------------------------------------------------------------------------------------------------||------------------------------------------------------------------------------------------------------|
Tap to rate this tab
 
# A B C D E F G H I J K L M N O P Q R S T U V W X Y Z