Chiodos - Is It Progression If A Cannibal Uses A Fork tab

There wasn't a full tab on this so here.

DROP D

tp=Tremolo Picking
PM=Palm Mute
~=Vibrato
.=Palm Mute 2

Intro credit to nategarcia

the rest to me

E||----------------------------------|B||--6-----6-----5---6-----8-----6---|G||----7-7---7-7---7---7-7---7-7---7-|D||----------------------------------|A||----------------------------------|D||----------------------------------|
------------------------------------|-------------------------------------|--5-----5-----8-----6-----6-----6---|--8-----8-----10---11-----10-----8---|----6-6---6-6---6-6---6-6---6-6---6-|----7-7---7-7----7----7-7----7-7---7-|------------------------------------|-------------------------------------|------------------------------------|-------------------------------------|------------------------------------|-------------------------------------|
------------------------------------|----------------------------------|------------------------------------|--6-----6-----5---6-----8-----6---|--10-10--10--10-10-10-9-9--9--9-9-9-|----7-7---7-7---7---7-7---7-7---7-|---x--x---x---x--x--x-x-x--x--x-x-x-|----------------------------------|---8--8---8---8--8--8-7-7--7--7-7-7-|----------------------------------|------------------------------------|----------------------------------|
------------------------------------|-------------------------------------|--5-----5-----8-----6-----6-----6---|--8-----8-----10---11-----10-----8---|----6-6---6-6---6-6---6-6---6-6---6-|----7-7---7-7----7----7-7----7-7---7-|------------------------------------|-------------------------------------|------------------------------------|-------------------------------------|------------------------------------|-------------------------------------|
Guitar 1:------------------------------------|------------------------------------|--10-10--10--10-10-10-6-6--6--6-6-6-|---x--x---x---x--x--x-x-x--x--x-x-x-|---8--8---8---8--8--8-4-4--4--4-4-4-|------------------------------------|
Guitar 2:
-------------------------------------------|-------------------------------------------|--10-10--10--10-10-10-14-14--14--14-14-14--|---x--x---x---x--x--x--x--x---x---x--x--x--|---8--8---8---8--8--8-12-12--12--12-12-12--|-------------------------------------------|
-------------------------------------------------|-------------------------------------------------|--------------14-14-14-14-14\9-9-9/12-12-12-12---|---------------x--x--x--x--x-x-x-x--x--x--x--x---|--0--0--0--0--12-12-12-12-12\7-7-7/10-10-10-10---|--0--0--0--0-------------------------------------|PM---------->
----------------------------------------------------|----------------------------------------------------|--------------12-12-12-12-12\10-10-10/12-12-12-12---|---------------x--x--x--x--x--x--x--x--x--x--x--x---|--0--0--0--0--10-10-10-10-10\-8--8--8/10-10-10-10---|--0--0--0--0----------------------------------------|PM---------->
----------------------------------|---------------------------------------|----------------------------------|---------------------------------------|--7-7-7-7-7-7-7-7-7-7-7-7-7-7-7-7-|--9-9---9-9-9---9-12-12---12-12-12---12|----------------------------------|---------------------------------------|--5-5-5-5-5-5-5-5-5-5-5-5-5-5-5-5-|--7-7---7-7-7---7-10-10---10-10-10---10|----------------------------------|---------------------------------------|
-------------------------------------------------|-------------------------------------------------|--------------14-14-14-14-14\9-9-9/12-12-12-12---|---------------x--x--x--x--x-x-x-x--x--x--x--x---|--0--0--0--0--12-12-12-12-12\7-7-7/10-10-10-10---|--0--0--0--0-------------------------------------|PM---------->
----------------------------------------------------|----------------------------------------------------|--------------12-12-12-12-12\10-10-10/12-12-12-12---|---------------x--x--x--x--x--x--x--x--x--x--x--x---|--0--0--0--0--10-10-10-10-10\-8--88/-10-10-10-10---|--0--0--0--0----------------------------------------|PM---------->
----------------------------------|---------------------------------------|----------------------------------|---------------------------------------|--7-7-7-7-7-7-7-7-7-7-7-7-7-7-7-7-|--9-9---9-9-9---9-12-12---12-12-12---12|----------------------------------|---------------------------------------|--5-5-5-5-5-5-5-5-5-5-5-5-5-5-5-5-|--7-7---7-7-7---7-10-10---10-10-10---10|----------------------------------|---------------------------------------|
----------------------------------|--------------------------------|----------------------------------|--------------------------------|-----10--10--7-----9~-----7-6-----|--------------------------------|------------------------------8-5-|----7~--7-8-7-5--------7--------|--0--------------------7----------|----------------8-7-8-----4--7--|--0--------------------7----------|--------------------------------| . .
----------------------------|--------------------------------------|----------------------------|--------------------------------------|--7--7--7--7--7--7--7-7-7-7-|--14--14--14--14--12--12--14-14-14-14-|----------------------------|--------------------------------------|--5--5--5--5--5--5--5-5-5-5-|--12--12--12--12--10--10--12-12-12-12-|----------------------------|--------------------------------------|
--------------------------------------|---------------------------------|--------------------------------------|---------------------------------|--15--15--15--15--15--15--15-15-15-15-|--12--12--12--12--6-6-6-6-6-6-6--|--------------------------------------|---------------------------------|--13--13--13--13--13--13--13-13-13-13-|--10--10--10--10--4-4-4-4-4-4-4--|--------------------------------------|---------------------------------|
----------------------------|--------------------------------------|----------------------------|--------------------------------------|--7--7--7--7--7--7--7-7-7-7-|--14--14--14--14--12--12--14-14-14-14-|----------------------------|--------------------------------------|--5--5--5--5--5--5--5-5-5-5-|--12--12--12--12--10--10--12-12-12-12-|----------------------------|--------------------------------------|
--------------------------------------|--------------------------------------|--15--15--15--15--15--15--15-15-15-15-|--------------------------------------|--13--13--13--13--13--13--13-13-13-13-|--------------------------------------|
------------------------------------------|------------------------------------------|--12--12--12--12--12-12-12-12-12-12-12-12-|------------------------------------------|--10--10--10--10--10-10-10-10-10-10-10-10-|------------------------------------------| PM--------------------->
-------------------------------------------------|-------------------------------------------------|--------------14-14-14-14-14\9-9-9/12-12-12-12---|---------------x--x--x--x--x-x-x-x--x--x--x--x---|--0--0--0--0--12-12-12-12-12\7-7-7/10-10-10-10---|--0--0--0--0-------------------------------------|PM---------->
----------------------------------------------------|----------------------------------------------------|--------------12-12-12-12-12\10-10-10/12-12-12-12---|---------------x--x--x--x--x--x--x--x--x--x--x--x---|--0--0--0--0--10-10-10-10-10\-8--8--8/10-10-10-10---|--0--0--0--0----------------------------------------|PM---------->
----------------------------------|---------------------------------------|----------------------------------|---------------------------------------|--7-7-7-7-7-7-7-7-7-7-7-7-7-7-7-7-|--9-9---9-9-9---9-12-12---12-12-12---12|----------------------------------|---------------------------------------|--5-5-5-5-5-5-5-5-5-5-5-5-5-5-5-5-|--7-7---7-7-7---7-10-10---10-10-10---10|----------------------------------|---------------------------------------|
------------------------------|------------------------------|--7--7--7--7--7--7-7-7-9-9-9--|--6--6--6--6--6--6-6-6-8-8-8--| Repeat as many times as needed--5--5--5--5--5--5-5-5-7-7-7--|------------------------------| PM------------------------>
--------------------------------------------------|--------------------------------------------------|--10-10-10-10-10-10-10-10-13-13-13-13-13-13-13-13-|--------------------------------------------------|---8--8--8--8--8--8--8--8-11-11-11-11-11-11-11-11-|--------------------------------------------------|
--------------------------------------------------|--15tp--------------|--------------------------------------------------|--------------------|--14-14-14-14-14-14-14-14-19-19-19-19-19-19-19-19-|--------------------|--------------------------------------------------|--------------------|--12-12-12-12-12-12-12-12-17-17-17-17-17-17-17-17-|--------------------|--------------------------------------------------|--------------------|
--------------------|--------------------|--------------------|--14tp--------------|--15tp--------------|--13tp--------------|--------------------|--------------------|--------------------|--------------------|--------------------|--------------------|--------------------|--------------------|--------------------|--------------------|--------------------|--------------------|
This only the second time:-----------------------|-------------------|--12tp----10tp---------|--8tp--------------|-----------------------|-------------------|-----------------------|-------------------| Repeat twice-----------------------|-------------------|-----------------------|-------------------|
-------------------------------------------------|-------------------------------------------------|--------------14-14-14-14-14\9-9-9/12-12-12-12---|---------------x--x--x--x--x-x-x-x--x--x--x--x---|--0--0--0--0--12-12-12-12-12\7-7-7/10-10-10-10---|--0--0--0--0-------------------------------------|PM--------->
----------------------------------------------------|----------------------------------------------------|--------------12-12-12-12-12\10-10-10/12-12-12-12---|---------------x--x--x--x--x--x--x--x--x--x--x--x---|--0--0--0--0--10-10-10-10-10\-8--8--8/10-10-10-10---|--0--0--0--0----------------------------------------|PM---------->
----------------------------------|---------------------------------------|----------------------------------|---------------------------------------|--7-7-7-7-7-7-7-7-7-7-7-7-7-7-7-7-|--9-9---9-9-9---9-12-12---12-12-12---12|----------------------------------|---------------------------------------|--5-5-5-5-5-5-5-5-5-5-5-5-5-5-5-5-|--7-7---7-7-7---7-10-10---10-10-10---10|----------------------------------|---------------------------------------|Repeat Twice
-------------------------------|----------------------------------|-------------------------------|----------------------------------|-----10--10--7--9~-----7-6-----|----------------------------------|---------------------------8-5-|--7~--7-8-7-5-----7~--7-8-7-5-----|--0-----------------7----------|--------------8-7-------------8-7-|--0-----------------7----------|----------------------------------| . .
--------------------------------||--------------------------------||--------------------------------||--7-8-7-5-----7-8-7-5-----0-----||----------8-7---------8-7-0-----||--------------------------0-----||
Enjoy!
Tap to rate this tab
 
# A B C D E F G H I J K L M N O P Q R S T U V W X Y Z