Chris Tomlin - Awakening tab version 3


Piano intro/verse, over and over again 

E|----------------------------------------------------|B|----------------------------------------------------|G|--8---7---------------------------------------------|D|----8---8-------------------------------------------|A|----------------------------------------------------|E|----------------------------------------------------|
Beginning of Bridge x2
|------------------------------------------------------------||13-13-13-13-13-13-15-15-16-16-16-16-16-16-18-18-20-20-20-20-||------------------------------------------------------------||------------------------------------------------------------||------------------------------------------------------------||------------------------------------------------------------|
|-------------------------------------------------------------------------||--------------18-18-18-18-18-18-18-18------------------------------------||--15-15-15-15------------------------------------------------------------||-------------------------------------------------------------------------||-------------------------------------------------------------------------||-------------------------------------------------------------------------|
Bridge x2
|------------------------------------------------------------||13-13-13-13-13-13-15-15-16-16-16-16-16-16-18-18-16-16-16-16-||------------------------------------------------------------||------------------------------------------------------------||------------------------------------------------------------||------------------------------------------------------------|
|------------------------------------------------------------||--------------18-18-18-18-----------------------------------||--15-15-15-15-----------------------------------------------||------------------------------------------------------------||------------------------------------------------------------||------------------------------------------------------------|
Ending to Bridge
|------------------------------------------------------------||13-13-13-13-13-13-15-15-16-16-16-16-16-16-18-18-20-20-20-20-||------------------------------------------------------------||------------------------------------------------------------||------------------------------------------------------------||------------------------------------------------------------|
|------------------------------------------------------------||------------18-18-18-18-18-18-18-18-------------------------||15-15-15-15-------------------------------------------------||------------------------------------------------------------||------------------------------------------------------------||------------------------------------------------------------|
|------------------------------------------------------------||13-13-13-13-13-13-15-15-16-16-16-16-16-16-18-18-16-16-16-16-||------------------------------------------------------------||------------------------------------------------------------||------------------------------------------------------------||------------------------------------------------------------|
|------------------------------------------------------------||------------18-18-18-18-18-18-18-18-------------------------||15-15-15-15-------------------------------------------------||------------------------------------------------------------||------------------------------------------------------------||------------------------------------------------------------|
Outro x2
|------------------------------------------------------------||13-13-13-13-13-13-15-15-16-16-16-16-16-16-18-18-20-20-20-20-||------------------------------------------------------------||------------------------------------------------------------||------------------------------------------------------------||------------------------------------------------------------|
|------------------------------------------------------------||------------18-18-18-18-18-18-18-18-------------------------||15-15-15-15-------------------------------------------------||------------------------------------------------------------||------------------------------------------------------------||------------------------------------------------------------|
Like The rising Sun that shines awake my soul
|------------------------------------------------------------||13-13-13-13-13-13-15-15-16-16-16-16-16-16-18-18-20-20-20-20-||------------------------------------------------------------||------------------------------------------------------------||------------------------------------------------------------||------------------------------------------------------------|
|------------------------------------------------------------||------------18-18-18-18-18-18-18-18-------------------------||15-15-15-15-------------------------------------------------||------------------------------------------------------------||------------------------------------------------------------||------------------------------------------------------------|
|------------------------------------------------------------||13-13-13-13-13-13-15-15-16-16-16-16-16-16-18-18-16-16-16-16-||------------------------------------------------------------||------------------------------------------------------------||------------------------------------------------------------||------------------------------------------------------------|
|------------------------------------------------------------||------------18-18-18-18-18-18-18-18-------------------------||15-15-15-15-------------------------------------------------||------------------------------------------------------------||------------------------------------------------------------||------------------------------------------------------------|
|------------------------------------------------------------||13-13-13-13-13-13-15-15-16-16-16-16-16-16-18-18-20-20-20-20-||------------------------------------------------------------||------------------------------------------------------------||------------------------------------------------------------||------------------------------------------------------------|
|------------------------------------------------------------||------------18-18-18-18-18-18-18-18-------------------------||15-15-15-15-------------------------------------------------||------------------------------------------------------------||------------------------------------------------------------||------------------------------------------------------------|
|------------------------------------------------------------||13-13-13-13-13-13-15-15-16-16-16-16-16-16-18-18-16-16-16-16-||------------------------------------------------------------||------------------------------------------------------------||------------------------------------------------------------||------------------------------------------------------------|
|------------------------------------------------------------||------------18-18-18-18-18-18-18-18-------------------------||15-15-15-15-------------------------------------------------||------------------------------------------------------------||------------------------------------------------------------||------------------------------------------------------------|
This one is off the album passion hope you enjoy it
Tap to rate this tab
 
# A B C D E F G H I J K L M N O P Q R S T U V W X Y Z