Chris Tomlin - Awakening tab version 4

Intro Piano over and over 

|--------------------------------------||--------------------------------------||--8---7-------------------------------||----8---8-----------------------------||--------------------------------------||--------------------------------------|
Verse over and over until chorus
|--------------------------------------||--------------------------------------||--8---7-------------------------------||----8---8-----------------------------||--------------------------------------||--------------------------------------|
Chorus x2
|--------------------------------------||--9----8----11---11-------------------||--8----8----8----10-------------------||--10---8----8----8--------------------||--------------------------------------||--------------------------------------|
Verse 2 over and over till 2nd chorus
|--------------------------------------||--------------------------------------||--8---7-------------------------------||----8---8-----------------------------||--------------------------------------||--------------------------------------|
Chorus x4
|--------------------------------------||--9----8----11---11-------------------||--8----8----8----10-------------------||-10---8----8----8---------------------||--------------------------------------||--------------------------------------|
Bridge
|---------------------------11-11-11-11-11-11-13-13-15-15-15-15||11-13-13-13-13-13-13-15-15------------------------------------||--------------------------------------------------------------||--------------------------------------------------------------||--------------------------------------------------------------||--------------------------------------------------------------|
|------------13-13-13-13-13-13-13-13---------------------------||11-11-11-11---------------------------------------------------||--------------------------------------------------------------||--------------------------------------------------------------||--------------------------------------------------------------||--------------------------------------------------------------|
|------------------------11-11-11-11-11-11-13-13-15-15-15-15---||13-13-13-13-13-13-15-15---------------------------------------||--------------------------------------------------------------||--------------------------------------------------------------||--------------------------------------------------------------||--------------------------------------------------------------|
|------------13-13-13-13-13-13-13-13---------------------------||11-11-11-11---------------------------------------------------||--------------------------------------------------------------||--------------------------------------------------------------||--------------------------------------------------------------||--------------------------------------------------------------|
|------------------------11-11-11-11-11-11-13-13-11-11-11-11---||13-13-13-13-13-13-15-15---------------------------------------||--------------------------------------------------------------||--------------------------------------------------------------||--------------------------------------------------------------||--------------------------------------------------------------|
|------------13-13-13-13-13-13-13-13------------------------------||11-11-11-11------------------------------------------------------||-----------------------------------------------------------------||-----------------------------------------------------------------||-----------------------------------------------------------------||-----------------------------------------------------------------|
|------------------------11-11-11-11-11-11-13-13-11-11-11-11---||13-13-13-13-13-13-15-15---------------------------------------||--------------------------------------------------------------||--------------------------------------------------------------||--------------------------------------------------------------||--------------------------------------------------------------|
|------------13-13-13-13-13-13-13-13------------------------------||11-11-11-11------------------------------------------------------||-----------------------------------------------------------------||-----------------------------------------------------------------||-----------------------------------------------------------------||-----------------------------------------------------------------|
|------------------------11-11-11-11-11-11------------------------||13-13-13-13-13-13-15-15------------------18-18-20-20-20-20-------||-----------------------------------------------------------------||-----------------------------------------------------------------||-----------------------------------------------------------------||-----------------------------------------------------------------|
|------------13-13-13-13-13-13-13-13------------------------------||11-11-11-11------------------------------------------------------||-----------------------------------------------------------------||-----------------------------------------------------------------||-----------------------------------------------------------------||-----------------------------------------------------------------|
|------------------------11-11-11-11-11-11------------------------||13-13-13-13-13-13-15-15------------------18-18-16-16-16-16-------||-----------------------------------------------------------------||-----------------------------------------------------------------||-----------------------------------------------------------------||-----------------------------------------------------------------|
Chorus
|------------13-13-13-13-13-13-13-13------------------------------||11-11-11-11------------------------------------------------------||-----------------------------------------------------------------||-----------------------------------------------------------------||-----------------------------------------------------------------||-----------------------------------------------------------------|
|------------------------11-11-11-11-11-11------------------------||13-13-13-13-13-13-15-15------------------18-18-20-20-20-20-------||-----------------------------------------------------------------||-----------------------------------------------------------------||-----------------------------------------------------------------||-----------------------------------------------------------------|
|------------13-13-13-13-13-13-13-13------------------------------||11-11-11-11------------------------------------------------------||-----------------------------------------------------------------||-----------------------------------------------------------------||-----------------------------------------------------------------||-----------------------------------------------------------------|
|------------------------11-11-11-11-11-11------------------------||13-13-13-13-13-13-15-15------------------18-18-20-20-20-20-------||-----------------------------------------------------------------||-----------------------------------------------------------------||-----------------------------------------------------------------||-----------------------------------------------------------------|
|------------13-13-13-13-13-13-13-13------------------------------||11-11-11-11------------------------------------------------------||-----------------------------------------------------------------||-----------------------------------------------------------------||-----------------------------------------------------------------||-----------------------------------------------------------------|
|------------------------11-11-11-11-11-11------------------------||13-13-13-13-13-13-15-15------------------18-18-20-20-20-20-------||-----------------------------------------------------------------||-----------------------------------------------------------------||-----------------------------------------------------------------||-----------------------------------------------------------------|
|------------13-13-13-13-13-13-13-13------------------------------||11-11-11-11------------------------------------------------------||-----------------------------------------------------------------||-----------------------------------------------------------------||-----------------------------------------------------------------||-----------------------------------------------------------------|
|------------------------11-11-11-11-11-11------------------------||13-13-13-13-13-13-15-15------------------18-18-16-16-16-16-------||-----------------------------------------------------------------||-----------------------------------------------------------------||-----------------------------------------------------------------||-----------------------------------------------------------------|
|------------13-13-13-13-13-13-13-13------------------------------||11-11-11-11------------------------------------------------------||-----------------------------------------------------------------||-----------------------------------------------------------------||-----------------------------------------------------------------||-----------------------------------------------------------------|
|------------------------11-11-11-11-11-11------------------------||13-13-13-13-13-13-15-15------------------18-18-20-20-20-20-------||-----------------------------------------------------------------||-----------------------------------------------------------------||-----------------------------------------------------------------||-----------------------------------------------------------------|
|------------13-13-13-13-13-13-13-13------------------------------||11-11-11-11------------------------------------------------------||-----------------------------------------------------------------||-----------------------------------------------------------------||-----------------------------------------------------------------||-----------------------------------------------------------------|
|------------------------11-11-11-11-11-11------------------------||13-13-13-13-13-13-15-15------------------18-18-16-16-16-16-------||-----------------------------------------------------------------||-----------------------------------------------------------------||-----------------------------------------------------------------||-----------------------------------------------------------------|
|------------13-13-13-13-13-13-13-13------------------------------||11-11-11-11------------------------------------------------------||-----------------------------------------------------------------||-----------------------------------------------------------------||-----------------------------------------------------------------||-----------------------------------------------------------------|
Tap to rate this tab
 
# A B C D E F G H I J K L M N O P Q R S T U V W X Y Z