Chrono Cross - End Theme tab

Tab: Serey Siv
Email: kuniflare@hotmail.com

Song: Chrono Cross - End Theme
----------------------------


Holy...This was really hard work. It was worth it but damn!
I think it really is perfect since I put so much time on it and I
really hope so. After listening and listening the song like a 
maniac, I've finally been able to give something good. I 
decided to re-tab this song since A LOT of the tabs on the net
were wrong, but not just a little bit wrong...I mean really wrong.
So enjoy and IF there IS A MISTAKE SOMEWHERE, PLEASE CONTACT ME.

"~" = Let it ring



[[1st Intro]]

---------------------------------------2---------------2---------|-----------0---------------0---------------3-------2-------2-----|-------2-------2-------2-------2---------------4-------------2---|-----0-------0-------2-------2-------4-------4-------4---------4-|-----------------0~------0-------2~------2-------0-------0-------|-3~------3-------------------------------------------------------|
-----------------------------------------0-------0---------------|-----------0---------------0-----------0---0-----0---------------|-------2-------2-------2-------2-----2-------2---1---------------|-----0-------0-------2-------2-----2-----------2-2---------------|-----------------0~------0-----------------------2---------------|-3~------3-----------------------0-------------------------------|
---------------------------------------2---------------2---------|-----------0---------------0---------------3-------2-------2-----|-------2-------2-------2-------2---------------4-------------2---|-----0-------0-------2-------2-------4-------4-------4---------4-|-----------------0~------0-------2~------2-------0-------0-------|-3~------3-------------------------------------------------------|
-------------------------------------------0---------------------|-----------0---------------0-----------0~----0---4---------------|-------2-------2-------2-------2---------------------------------|-----0-------0-------2-------2-------4---------4-----------------|-----------------0~------0-------2~--------------2---------------|-3~------3-------------------------------------------------------|
[[1st Verse - Part 1]]
---------------------------------------2---------------2---------|-----------0---------------0---------------3-------2-------2-----|-------2-------2-------2-------2---------------4-------------2---|-----0-------0-------2-------2-------4-------4-------4---------4-|-----------------0~------0-------2~------2-------0-------0-------|-3~------3-------------------------------------------------------|
-----------------------------------------------------------------|-----------0---------------0-------------------------------------|-------2-------2-------2-------2-----------2-------4-------4-----|-----0-------0-------2-------2---------2-------2-------4-------3-|-----------------0~------0-----------2-------2-------4-------4---|-3~------3-----------------------0~------0-------2-------2-------|
---------------------------------------2---------------2---------|-----------0---------------0---------------3-------2-------2-----|-------2-------2-------2-------2---------------4-------------2---|-----0-------0-------2-------2-------4-------4-------4---------4-|-----------------0~------0-------2~------2-------0-------0-------|-3~------3-------------------------------------------------------|
---------------------------------------2---------------2---------|-----------0---------------0---------------2---------2-----2-----|-------2-------2-------2-------2-----4-------4-3---3---------3---|-----0-------0-------2-------2-----4---------------------------4-|-----------------0~------0---------------------------------------|-3~------3-----------------------2-------2-------2-------2-------|
[[1st Verse - Part 2]]
---------------------------------------2---------------2---------|-----------0---------------0---------------3-------2-------2-----|-------2-------2-------2-------2---------------4-------------2---|-----0-------0-------2-------2-------4-------4-------4---------4-|-----------------0~------0-------2~------2-------0-------0-------|-3~------3-------------------------------------------------------|
-----------------------------------------------------------------|-----------0---------------0-------------------------------------|-------2-------2-------2-------2-----------2-------4-------4-----|-----0-------0-------2-------2---------2-------2-------4-------3-|-----------------0~------0-----------2-------2-------4-------4---|-3~------3-----------------------0~------0-------2-------2-------|
---------------------------------------2---------------2---------|-----------0---------------0---------------3-------2-------2-----|-------2-------2-------2-------2---------------4-------------2---|-----0-------0-------2-------2-------4-------4-------4---------4-|-----------------0~------0-------2~------2-------0-------0-------|-3~------3-------------------------------------------------------|
-------------------------------------------------------2---------|-----------0---------------0---------------2---0-----------2-----|-------2-------2-------2-------2-------4-------------4-------3---|-----0-------0-------2-------2-------4-------4-----4-----------4-|-----------------0~------0---------------------------------------|-3~------3-----------------------2~------2-------2-------2-------|
[[1st Chorus]]
-----------------------------------------------------------------|-----------0---------------0-----------------------3-------2-----|-------2-------2-------2-------2-----------2-----------4-------2-|-----0-------0-------2-------2---------4-------4-----4-------4---|-----------------0~------0-----------4-------4---2-------0-------|-3~------3-----------------------2~------2-----------------------|
-------------------------------------------0-------0-------0-----|-----------0---------------0-----------3-------0-------2---------|-------2-------2-------2-------2---------------------------------|-----0-------0-------2-------2-------4---4---4---4---4---4-------|-----------------0~------0-------2~------------------------0-----|-3~------3-------------------------------------------------------|
-----------------------------------------------------------------|-----------0---------------0-----------------------3-------2-----|-------2-------2-------2-------2-----------2-----------4-------2-|-----0-------0-------2-------2---------4-------4-----4-------4---|-----------------0~------0-----------4-------4---2-------0-------|-3~------3-----------------------2~------2-----------------------|
-------------------------------0-5~------------------------------|-----------0-----------------2-----------------------------------|-------2-------2-------2---2-------------------------------------|-----0-------0-------2-------------------------------------------|-----------------0~----------------------------------------------|-3~------3-------------------------------------------------------|
[[2nd Intro]]
---------------------------------------2---------------2---------|-----------0---------------0---------------3-------2-------2-----|-------2-------2-------2-------2---------------4-------------2---|-----0-------0-------2-------2-------4-------4-------4---------4-|-----------------0~------0-------2~------2-------0-------0-------|-3~------3-------------------------------------------------------|
-----------------------------------------0-------0---------------|-----------0---------------0-----------0---0-----0---------------|-------2-------2-------2-------2-----2-------2---1---------------|-----0-------0-------2-------2-----2-----------2-2---------------|-----------------0~------0-----------------------2---------------|-3~------3-----------------------0-----------------------0~--2~--|
---------------------------------------2---------------2---------|-----------0---------------0---------------3-------2-------2-----|-------2-------2-------2-------2---------------4-------------2---|-----0-------0-------2-------2-------4-------4-------4---------4-|-----------------0~------0-------2~------2-------0-------0-------|-3~------3-------------------------------------------------------|
---------------------------------------0-------0-----------------|-----------0---------------0---------0-------0---4---------------|-------2-------2-------2-------2---------------------------------|-----0-------0-------2-------2-----4-------4---------------------|-----------------0~------0-------2-------2-------2---------------|-3~------3-------------------------------------------------------|
[[2st Verse - Part 1]]
---------------------------------------2---------------2---------|-----------0---------------0---------------3-------2-------2-----|-------2-------2-------2-------2---------------4-------------2---|-----0-------0-------2-------2-------4-------4-------4---------4-|-----------------0~------0-------2~------2-------0-------0-------|-3~------3-------------------------------------------------------|
-----------------------------------------------------------------|-----------0---------------0-----------------------3-------2-----|-------2-------2-------2-------2-----------2-----------4-------2-|-----0-------0-------2-------2---------4-------4-----4-------4---|-----------------0~------0-----------4-------4---2-------0-------|-3~------3-----------------------2~------2-----------------------|
---------------------------------------2---------------2---------|-----------0---------------0---------------3-------2-------2-----|-------2-------2-------2-------2---------------4-------------2---|-----0-------0-------2-------2-------4-------4-------4---------4-|-----------------0~------0-------2~------2-------0-------0-------|-3~------3-------------------------------------------------------|
-----------------------------------------2---------------2-------|-----------0---------------0-----------2---2-----------2---2-----|-------2-------2-------2-------2-----4-------4-------3-------3---|-----0-------0-------2-------2-----4-----------4---4-----------4-|-----------------0~------0---------------------------------------|-3~------3-----------------------2---------------2---------------|
[[1st Chorus]]
-----------------------------------------------------------------|-----------0---------------0-----------------------3-------2-----|-------2-------2-------2-------2-----------2-----------4-------2-|-----0-------0-------2-------2---------4-------4-----4-------4---|-----------------0~------0-----------4-------4---2-------0-------|-3~------3-----------------------2~------2-----------------------|
-----------------------------------------0---------------0-------|-----------0---------------0---------3-------3-------3-------2---|-------2-------2-------2-------2---------------------------------|-----0-------0-------2-------2-----4---4---4---4---4---4---4---4-|-----------------0~------0-------2---------------0---------------|-3~------3-------------------------------------------------------|
-----------------------------------------------------------------|-----------0---------------0-----------------------3-------2-----|-------2-------2-------2-------2-----------2-----------4-------2-|-----0-------0-------2-------2---------4-------4-----4-------4---|-----------------0~------0-----------4-------4---2-------0-------|-3~------3-----------------------2~------2-----------------------|
-----------------------------------------0-------0---------------|-----------0---------------0-----------0---0-----0---------------|-------2-------2-------2-------2-----2-------2---1---------------|-----0-------0-------2-------2-----2-----------2-2---------------|-----------------0~------0-----------------------2---------------|-3~------3-----------------------0-------------------------------|
[[Bridge]]
-------2---------------2---------------2-------------------------|-----------3---------------3---------3-----3-----------3---2-----|-----4-------4-------4-------4-----2---------2-------2-------2---|---4-----------4---4-----------4-0-------0-----0---2-----------2-|-2-------2---------------------------------------0-------0-------|-----------------3-------3---------------------------------------|
-------2---------------2-------------------0---------------0-----|-----------3---------------3---------3---------3-----2---------2-|-----4-------4-------4-------4-----2---2-----2-----2---2-----2---|---4-----------4---4-----------4---------------------------------|-2-------2-----------------------0-------0-------0-------0-------|-----------------3-------3---------------------------------------|
-------2---------------2---------------2-------------------------|-----------3---------------3---------3-----3-----------3---2-----|-----4-------4-------4-------4-----2---------2-------2-------2---|---4-----------4---4-----------4-0-------0-----0---2-----------2-|-2-------2---------------------------------------0-------0-------|-----------------3-------3---------------------------------------|
-------2---------------2-------------------0-------------0-------|-----------3---------------3---------3---------3-----2-----0-2---|-----4-------4-------4-------4-----2---2-----2-----2---2-------2-|---4-----------4---4-----------4---------------------------------|-2-------2-----------------------0-------0-------0-------0-------|-----------------3-------3---------------------------------------|
-------2---------------2---------------2-------------------------|-----------3---------------3---------3-----3-----------3---2-----|-----4-------4-------4-------4-----2---------2-------2-------2---|---4-----------4---4-----------4-0-------0-----0---2-----------2-|-2-------2---------------------------------------0-------0-------|-----------------3-------3---------------------------------------|
-------2---------------2-------------------0-----------0-0-------|-----------3---------------3---------3-------0-2-----2-----0-2---|-----4-------4-------4-------4-----2---2-----------2-----------2-|---4-----------4---4-----------4---------------------------------|-2-------2-----------------------0-------0-------0-------0-------|-----------------3-------3---------------------------------------|
-------2---------------2---------------2-------------------------|-----------3---------------3---------3-----3-----------3---2-----|-----4-------4-------4-------4-----2---------2-------2-------2---|---4-----------4---4-----------4-0-------0-----0---2-----------2-|-2-------2---------------------------------------0-------0-------|-----------------3-------3---------------------------------------|
-------2---------------2-------------------0-----------0---------|-----------3---------------3---------3---------3-----2-----0-2---|-----4-------4-------4-------4-----2---2-----2-----2-----------2-|---4-----------4---4-----------4---------------------------------|-2-------2-----------------------0-------0-------0-------0-------|-----------------3-------3---------------------------------------|
[[Ending]]
---------------------------------------2---------------2---------|-----------0---------------0---------------3-------2-------2-----|-------2-------2-------2-------2---------------4-------------2---|-----0-------0-------2-------2-------4-------4-------4---------4-|-----------------0~------0-------2~------2-------0-------0-------|-3~------3-------------------------------------------------------|
-----------------------------------------0-2---5~-------5~-------|-----------0---------------0---------3-3-----3-----2-------2-----|-------2-------2-------2-------2---------------4~-------4~-----4-|-----0-------0-------2-------2-----4-----------------4-------4---|-----------------0~------0-------2------------(2)----------------|-3~------3-------------------------------------------------------|
---------------------------------------2---------------2---------|-----------0---------------0---------------3-------2-------2-----|-------2-------2-------2-------2---------------4-------------2---|-----0-------0-------2-------2-------4-------4-------4---------4-|-----------------0~------0-------2~------2-------0-------0-------|-3~------3-------------------------------------------------------|
-------------------------0---------------------------------------|-----------0-----------0---0-------4h5p4-------------------------|-------2-------2-----2-------2-----4-----------------------------|-----0-------0-----2-----------2~--4-----------------------------|-----------------0-----------------2-----------------------------|-3~------3-------------------------2-----------------------------|
Tap to rate this tab
 
# A B C D E F G H I J K L M N O P Q R S T U V W X Y Z