Gypsy Road tab with lyrics by Cinderella - Easy chords and tabs for guitar

Cinderella – Gypsy Road tab

-------------------------------------------------------------------------------
			     Gypsy Road - Cinderella
-------------------------------------------------------------------------------
Tabbed by: chrismacker
Email: chrisjardine12@hotmail.com

Tuning: Standard E A D G B e

Riff 1e|------------------|B|------------------|G|---------4-----4--|D|---------4-----4--|A|--4b6r4--2--2--2--|E|------------------|
Riff 2e|--------------------|B|--------------------|G|-----------4-----4--|D|-----------4-----4--|A|--0--2--4--2--2--2--|E|--------------------|
1st Verse|-----------------|-----------------|----------------|----------------||-----------------|-----------------|----------------|----------------||-----------------|-----------------|--------4----4--|-------4--------||-2-2-4-2-2-2-4-2-|-2-2-4-2-2-2-4-2-|--------4----4--|-------4--------||-0-0-0-0-0-0-0-0-|-0-0-0-0-0-0-0-0-|-4b6r4--2--2-2--|-0-2-4-2--------||-----------------|-----------------|----------------|----------0-3-4-|
|-----------------|-----------------|----------------|---------------||-----------------|-----------------|----------------|---------------||-----------------|-----------------|--------4----4--|-------4----4--||-2-2-4-2-2-2-4-2-|-2-2-4-2-2-2-4-2-|--------4----4--|-------4----4--||-0-0-0-0-0-0-0-0-|-0-0-0-0-0-0-0-0-|-4b6r4--2--2-2--|-0-2-4-2--2-2--||-----------------|-----------------|----------------|---------------|
|----------------|----------------|----------------|----------------||----------------|----------------|----------------|----------------||-2-2-4-4-2-2-4--|----------------|----------------|--------4---4---||-0-0-0-0-0-0-0--|-2-2-4-4-2-2-4--|--------2----2--|---2----4---4-2-||----------------|-0-0-0-0-0-0-0--|--------2----2--|---2----2---2-2-||----------------|----------------|-2b3r2--0--0-0--|-0-0--0---0---0-|
|----------------|----------------|-----------------|---------------||----------------|----------------|-----------------|---------------||-2-2-4-4-2-2-4--|----------------|-----------------|---------------||-0-0-0-0-0-0-0--|-2-2-4-4-2-2-4--|-----------------|---------------||----------------|-0-0-0-0-0-0-0--|-5-5-5-5-5-5-5-5-|-4-4-4-4-4--4--||----------------|----------------|-3-3-3-3-3-3-3-3-|-2-2-2-2-2--2--|
Chorus|----------------|----------------|-----------------|---------------||----------------|----------------|-----------------|---------------||--------4----4--|-4----4---------|-----------------|------------4--||--------4----4--|-2----2---------|-2-2-4-4-2-2-4---|-2----2-----2--||-4b6r4--2--2-2--|-2--0-2---2-----|-0-0-0-0-0-0-0-0-|-2----2-----2--||----------------|----------0-3-0-|-----------------|-0--0-0---0----|
|----------------|---------------|-----------------|-----------||----------------|---------------|-----------------|-----------||--------4----4--|-4----4---4-4--|-----------------|-----------||--------4----4--|-2----2---2-2--|-2-2-4-4-2-2-4-2-|--------2--||-4b6r4--2--2-2--|-2----2---2-2--|-0-0-0-0-0-0-0-0-|--------2--||----------------|----0---0------|-----------------|-2b4r2--0--|
|----------------|---------------|----------------|----------------||----------------|---------------|----------------|----------------||--------4----4--|-------4----4--|--------4----4--|-------4--------||--------4----4--|-------4----4--|--------4----4--|-------4--------||-4b6r4--2--2-2--|-0-2-4-2--2-2--|-4b6r4--2--2-2--|-0-2-4-2--------||----------------|---------------|----------------|----------0-3-4-|
2nd Verse|-----------------|-----------------|----------------|----------------||-----------------|-----------------|----------------|----------------||-----------------|-----------------|--------4----4--|-------4--------||-2-2-4-2-2-2-4-2-|-2-2-4-2-2-2-4-2-|--------4----4--|-------4--------||-0-0-0-0-0-0-0-0-|-0-0-0-0-0-0-0-0-|-4b6r4--2--2-2--|-0-2-4-2--------||-----------------|-----------------|----------------|----------0-3-4-|
|-----------------|-----------------|----------------|---------------||-----------------|-----------------|----------------|---------------||-----------------|-----------------|--------4----4--|-------4----4--||-2-2-4-2-2-2-4-2-|-2-2-4-2-2-2-4-2-|--------4----4--|-------4----4--||-0-0-0-0-0-0-0-0-|-0-0-0-0-0-0-0-0-|-4b6r4--2--2-2--|-0-2-4-2--2-2--||-----------------|-----------------|----------------|---------------|
|----------------|----------------|----------------|----------------||----------------|----------------|----------------|----------------||-2-2-4-4-2-2-4--|----------------|----------------|--------4---4---||-0-0-0-0-0-0-0--|-2-2-4-4-2-2-4--|--------2----2--|---2----4---4-2-||----------------|-0-0-0-0-0-0-0--|--------2----2--|---2----2---2-2-||----------------|----------------|-2b3r2--0--0-0--|-0-0--0---0---0-|
|----------------|----------------|-----------------|---------------||----------------|----------------|-----------------|---------------||-2-2-4-4-2-2-4--|----------------|-----------------|---------------||-0-0-0-0-0-0-0--|-2-2-4-4-2-2-4--|-----------------|---------------||----------------|-0-0-0-0-0-0-0--|-5-5-5-5-5-5-5-5-|-4-4-4-4-4--4--||----------------|----------------|-3-3-3-3-3-3-3-3-|-2-2-2-2-2--2--|
Chorus|----------------|----------------|-----------------|---------------||----------------|----------------|-----------------|---------------||--------4----4--|-4----4---------|-----------------|------------4--||--------4----4--|-2----2---------|-2-2-4-2-2-2-4---|-2----2-----2--||-4b6r4--2--2-2--|-2--0-2---2-----|-0-0-0-0-0-0-0-0-|-2----2-----2--||----------------|----------0-3-0-|-----------------|-0--0-0---0----|
|----------------|---------------|-----------------|------------||----------------|---------------|-----------------|------------||--------4----4--|-4----4---4-4--|-----------------|------------||--------4----4--|-2----2---2-2--|-2-2-4-2-2-2-4-2-|---------2--||-4b6r4--2--2-2--|-2----2---2-2--|-0-0-0-0-0-0-0-0-|---------2--||----------------|----0---0------|-----------------|-2b3r2-0-0--|
|----------------|---------------|-------------|----------------||----------------|---------------|-------------|----------------||--------4----4--|-------4----4--|-----4----4--|-------4--------||--------4----4--|-------4----4--|-----4----4--|-------4--------||-4b6r4--2--2-2--|-0-2-4-2--2-2--|-4b6r4--2-2--|-0-2-4-2--------||----------------|---------------|-------------|----------0-3-4-|
Bridge|--------------|----------|--------------|--------------||-5----5----5--|-2--------|-5----5----5--|-4----4----4--||-6----6----6--|-2--------|-4----4----4--|-4----4----4--||-6----6----6--|-2--------|-2----2----2--|-4----4----4--||-4----4----4--|-0--------|--------------|-2----2----2--||--------------|----------|--------------|--------------|
|
|--------------|----------|--------------|--------------||--------------|----------|--------------|--------------||--------------|----------|-9----8----9--|--------------||--------------|----------|--------------|--------------||-4----6----7--|----------|-7----6----7--|--------------||--------------|-5--------|--------------|-7------------|
|--------------|----------|-------------------|------------------||-5----5----5--|-2--------|-4------4------4---|-(4)-4------4--4--||-6----6----6--|-2--------|-4------4------4---|-(4)-4------4--4--||-6----6----6--|-2--------|-4------4------4---|-(4)-4------4--4--||-4----4----4--|-0--------|-2------2------2---|-(2)-2------2--2--||--------------|----------|-------------------|------------------|
|
|--------------|----------|-------------------|------------------||--------------|----------|-------------------|------------------||--------------|----------|-------------------|------------------||--------------|----------|-4--4-4-4--4-4-4-4-|--4--4--4-4-4--4--||-4----6----7--|----------|-2--2-2-2--2-2-2-2-|--2--2--2-2-2--2--||--------------|-7--------|-------------------|------------------|
Guitar Solo|-------10-10-------10-10-------10-|----10b12r(10)--------------||-------10-10-------10-10-------10-|-10-------------------------||-12b14-------12b14-------12b14----|----------------------------||----------------------------------|---------------10-10h11-----||----------------------------------|------------------------12--||----------------------------------|----------------------------|
|
|----------------------------------|----------------------------||----------------------------------|----------------------------||--2-----2--4--4-----2--2--4-------|----------------------------||--0-----0--0--0-----0--0--0-------|--2--2------4---4--2--2--4--||----------------------------------|--0--0------0---0--0--0--0--||----------------------------------|----------------------------|
|------4b5---0-2b3---0-2b3-|------------------------||------2b3---0-2b3---0-2b3-|------------------------||-1------------------------|----11b12---7b8---9-----||--------------------------|----11b12-9-7b8-7-9-7---||--------------------------|-10---------------------||--------------------------|------------------------|
|
|--------------------------|------------------------||--------------------------|------------------------||--------------------------|----------------4---4---||------------2-------2-----|-----2----------4---4-2-||------------2-------2-----|-----2----------2---2-2-||-2b3r(2)--0-0-----0-0-----|--0--0------0-----0---0-|
|------------10-------------10-----------||---------10----12-10----10----10-13b17--||-0-12-12-------------12-----------------||----------------------------------------||----------------------------------------||----------------------------------------|
|
|----------------------------------------||----------------------------------------||-2--2-----4-----4-----2-----2-----4-----||-0--0-----0-----0-----0-----0-----0-----||----------------------------------------||----------------------------------------|
|------------------------|--------------------------||------------------------|--------------------------||-------------13----9s10-|-0-7b9r(7)-7-7b9r(7)-7----||----10s11---------10s11-|---7b9r(7)-9-7b9r(7)-9----||-10-------12------------|-----------------------7--||------------------------|--------------------------|
|
|------------------------|--------------------------||------------------------|--------------------------||------------------------|--------------------------||--2--2--4--4--2-2--4----|--------------------------||--0--0--0--0--0-0--0----|-5-5----5--5-5----5--5-5--||------------------------|-3-3----3--3-3----3--3-3--|
|--------------0-|--------------|--------------|----------------------||--------------0-|--------------|--------------|----------------------||----------------|-[2]b4--------|-([2])--------|-([2])----------------||-5-7-5s4--------|--------------|--------------|----------------------||----------------|--------------|--------------|----------------------||----------------|--------------|--------------|----------------------|
|
|----------------|--------------|--------------|----------------------||----------------|--------------|--------------|----------------------||----------------|--4-----------|--(4)---------|-----------------4-4--||----------------|--2-----------|--(2)---------|-------------4-----4--||-4-4-4-4-4--4---|--2-----------|--(2)---------|---4b6r(4)-2----------||-2-2-2-2-2--2---|--------------|--------------|----------------------|
3x||-----------------0--|--------------|--------------|---------------------||||o--------------0----|--------------|--------------|--------------------o||||--------------------|--------------|--------------|--------------4-4----||||------------2-------|-2----4----2--|--------------|-----------4----4----||||o-------------------|-0----0----0--|-2----4----2--|-4b6r(4)-2----------o||||--2b3r(2)-0---------|--------------|-0----0----0--|---------------------||
|----------------0--|--------------|--------------|------------------||--------------0----|--------------|--------------|------------------||-------------------|--------------|--------------|------------------||-----------2-------|-2----4----2--|--------------|------------------||-------------------|-0----0----0--|-2----2----2--|-(2)--2-2-2-2-2-2-||-2b3r(2)-0---------|--------------|-0----0----0--|-(0)--0-0-0-0-0-0-|
Outro Chorus 6x||--------------------|---------------|-----------------|-----------------||||o-------------------|---------------|-----------------|----------------o||||------------4----4--|-4----------4--|-----------------|-4----------4----||||------------4----4--|-4----2-----4--|-----------------|-4--4-2-----4----||||o-4b6r(4)-2-2--2-2--|-2----2-----2--|-0-0-0-0-0-0-0-0-|-2--4-2-----2---o||||--------------------|-0--0-0-x-x-0--|-----------------|-0--2-0-0-0-0----||
| / slide up | \ slide down | h hammer-on | p pull-off | ~ vibrato | + harmonic | x Mute note ===============================================================================
Please rate this tab:
x1.0