Cinema Strange - Nightfalssthe Nocturnal tab

-------------------------|-------------------------|-------------------------|--------3-3--------------|----0-0-----3-3-2h3-2h3--|-------------------------| x4
-----------------------------------------------------|-----------------------------------------------------|-----------------------------------------------------|:----------------------------------------------------|:-3-3-3-3-3-3----------------------------------------|:-------------0-0-0-0-0-0-4-4-4-4-4-8-7-6-8-7-6-8-7--| x8
-----------------|-----------------|-----------------|--5/4------4/5---| x4--3/2------2/3---|-----------------|
--------------------------------------------------------------|--------------------------------------------------------------|---------------------3ring-------------------3-3--------------|-0ring3-3-3--2-3-2-1-------0ring3-3-3-2-3-2-1-----------------|--------------------------------------------------------------| x2--------------------------------------------------------------|
------------------------------------------------------|------------------------------------------------------|------------------------------------------------------|:-----------------------------------------------------|:-3-3-3-3-3-3-----------------------------------------|:-------------0-0-0-0-0-0-4-4-4-4-4-8-7-6-8-7-6-8-7x4-|
-----------------|-----------------|-----------------|--5/4------4/5---| x4--3/2------2/3---|-----------------|
--------------------------------------------------------------|--------------------------------------------------------------|---------------------3ring-------------------3-3--------------|-0ring3-3-3--2-3-2-1-------0ring3-3-3-2-3-2-1-----------------|--------------------------------------------------------------| x2--------------------------------------------------------------|
------------------------------------------------------|------------------------------------------------------|------------------------------------------------------|:-----------------------------------------------------|:-3-3-3-3-3-3-----------------------------------------|:-------------0-0-0-0-0-0-4-4-4-4-4-8-7-6-8-7-6-8-7---| x4
------------------------|------------------------|------------------------|-----3-3----------------|-0-0-----3-3-2h3-2h3----|------------------------| x4
-----------------------------------------------------|-----------------------------------------------------|-----------------------------------------------------|:----------------------------------------------------|:-3-3-3-3-3-3----------------------------------------|:-------------0-0-0-0-0-0-4-4-4-4-4-8-7-6-8-7-6-8-7--| x4
-----------------|-----------------|-----------------|--5/4------4/5---| x4--3/2------2/3---|-----------------|
http://www.nightmarezone.de/cinemastrange/Main.html
Tap to rate this tab
 
# A B C D E F G H I J K L M N O P Q R S T U V W X Y Z