Circa Survive – Difference Between Medicine And Poison Is In The Dose tab

Circa Survive
The Difference Between Medicine And Poison Is In The Dose

Tabbed By rian_sigit

this is text version of my guitar pro tab, enjoy!
please send a comment if any correction...


legend
h = hammer
p = pull
b = bend
r = release
\ = slide down
/ = slide up


Tuning dafcgd

Verse
gtr 1

|---5--------8-7---------5------8-7------------------------||-----5--------------------5-------------------------------||-------5--------9\7-7-------5------9\7-7--7/12--12h14-----||----------------------------------------------------------||----------------------------------------------------------||----------------------------------------------------------|
|---17--------20-19----------------------------------------||------17--------------------------------------------------||---------17--------21\19-19--h21p19h21p19h21p19-----------||----------------------------------------------------------||----------------------------------------------------------||----------------------------------------------------------|
move one inch at.......
--------------------------|--------------------------|--18----------------------|--17----------------------|------14h-17--17----------|------14------17----------|------------------14h-17--|----------17------14h-17--|--------------------------|--------------------------|--------------------------|--------------------------|
--------------------------|--------------------------|--17----------------------|--18----------20----------|------14------17----------|------14h-17------14h-17--|----------17------14h-17--|--------------------------|--------------------------|--------------------------|--------------------------|--------------------------|
--------------------------|--------------------------|--18----------------------|--17----------------------|------14h-17--17----------|------14------17----------|------------------14h-15--|----------15------14h-15--|--------------------------|--------------------------|--------------------------|--------------------------|
--------------------------|--------------------------|--17----------------------|--18----------17----------|------14------17----------|------14h-17------14h-17--|----------15------14h-15--|--------------------------|--------------------------|--------------------------|--------------------------|--------------------------|
--------------------------|--------------------------|--18----------------------|--17----------------------|------14h-17--17----------|------14------17----------|------------------14h-17--|----------17------14h-17--|--------------------------|--------------------------|--------------------------|--------------------------|
--------------------------|--------------------------|--17----------------------|--18----------20----------|------14------17----------|------14h-17------14h-17--|----------17------14h-17--|--------------------------|--------------------------|--------------------------|--------------------------|--------------------------|
--------------------------|--------------------------|--18----------------------|--17----------------------|------14------17----------|------14------17----------|----------15------14h-15--|----------15------14h-15--|--------------------------|--------------------------|--------------------------|--------------------------|
--------------------------|----------------|--17----------18----------|--20------------|------14----------14--17--|----------------|----------15--------------|----------------|--------------------------|----------------|--------------------------|----------------|
|---17--------20-19----------------------------------------||------17--------------------------------------------------||---------17--------21\19-19--h21p19h21p19h21p19-----------||----------------------------------------------------------||----------------------------------------------------------||----------------------------------------------------------|
gtr 2
|---3p1p0h1p0h1p0h1p0h1p0------0--3p1p0h1p0h1p0h1p0h1p0-----||-------------------------h1----------------------------1/3-||-----------------------------------------------------------||-----------------------------------------------------------||-----------------------------------------------------------||-----------------------------------------------------------|
|---19------------------------------------------------------||------19------21-19---------20-----------------------------||---------20----------17-16---------------------------------||-----------------------------------------------------------||-----------------------------------------------------------||-----------------------------------------------------------|
move one inch at.......|----------------------------||----------------------------||--10--9--------10--9---7----|2x|----*--*---------*--*---*---||----------------------------||----------------------------|*tremolo pick
|---19------------------------------------------------------||------19------21-19---------20-----------------------------||---------20----------17-16---------------------------------||-----------------------------------------------------------||-----------------------------------------------------------||-----------------------------------------------------------|
chorus gtr 1
-----------3-------|-----------0-------|-----------0-------|-----------3-------|-----1----------1--|-----1----------1--|-----1----------1--|-----1----------1--|--2-----2----------|--2-----2----------|--2-----2----------|--2-----2----------|3x-------------------|-------------------|-------------------|-------------------|-------------------|-------------------|-------------------|-------------------|-------------------|-------------------|-------------------|-------------------|
--------------------------|--------------------------|--10--10--10--10--10--10--|--12--12--12--12--12--12--|--------------------------|--------------------------|--------------------------|--------------------------|--------------------------|--------------------------|--------------------------|--------------------------|
--------------------------|--------------------------|--13--13--13--13--13--13--|--15--15--15--15--15--15--|--------------------------|--------------------------|--------------------------|--------------------------|--------------------------|--------------------------|--------------------------|--------------------------|
--13----------13----------|--13----------13----------|------10----------10------|------10----------10------|----------12----------12--|----------12----------12--|--------------------------|--------------------------|--------------------------|--------------------------|--------------------------|--------------------------|
--------------------------|--------------------------|--8--------8--------|----------10----------10--|----------10----------10--|-----5--------5-----|------12------12----------|--12----------12----------|--------7--------7--|--14--------------14------|------14----------14------|--------------------|--------------------------|--------------------------|--------------------|--------------------------|--------------------------|--------------------|
--8--------8--------|--7--------7--------|--7--------7--------|-----5--------5-----|-----5--------5-----|-----5--------5-----|--------7--------7--|--------7--------7--|--------7--------7--|--------------------|--------------------|--------------------|--------------------|--------------------|--------------------|--------------------|--------------------|--------------------|
--13----------13----------|--13----------13----------|------10----------10------|------10----------10------|----------12----------12--|----------12----------12--|--------------------------|--------------------------|--------------------------|--------------------------|--------------------------|--------------------------|
--12----------12----------|--10------------|------10----------10------|----------------|----------12----------12--|----------------|--------------------------|----------------|--------------------------|----------------|--------------------------|----------------|
gtr 2
1.3.5 2 4 6|---------------------------|-----------|-------------|----12-------||--12b13r12-10--12b13r12-10-|----10---8-|----10-13-12-|-15----13-12-||---------------------------|-12----9---|-12----------|-------------||---------------------------|-----------|-------------|-------------||---------------------------|-----------|-------------|-------------||---------------------------|-----------|-------------|-------------|
|-------10----10----------10----10-------------12----12----15-||-12-12----12----12--12-12----12----12---15-15----15----15----||-------------------------------------------------------------||-------------------------------------------------------------||-------------------------------------------------------------||-------------------------------------------------------------|
1.3 2 4|---------------------------|-----------|-------------||--12b13r12-10--12b13r12-10-|----10---8-|----10-------||---------------------------|-12----9---|-12----9-7---||---------------------------|-----------|-------------||---------------------------|-----------|-------------||---------------------------|-----------|-------------|
|---------------------------------------------------||--12b13r12-10--12b13r12-10-------------------------||-\_______________________/----9--------------------||-----------3x--------------------------------------||---------------------------------------------------||---------------------------------------------------|
Verse 2 gtr 1
------------|------------|--5---10----|4x--7---12----|------------|------------|
|---17--------20-19----------------------------------------||------17--------------------------------------------------||---------17--------21\19-19--h21p19h21p19h21p19-----------||----------------------------------------------------------||----------------------------------------------------------||----------------------------------------------------------|
gtr 2
|---------------------------------------------------||------------------------------8*-10*-12b13r12-10-8-||--_4x_------------------7*-9*----------------------|2x|-/----\------------7*-9----------------------------||------------7*-10*---------------------------------||--1-3*---------------------------------------------|
*tremolo pick
|---19------------------------------------------------------||------19------21-19---------20-----------------------------||---------20----------17-16---------------------------------||-----------------------------------------------------------||-----------------------------------------------------------||-----------------------------------------------------------|
bridge gtr 1
--15----------15----------|--15----------15----------|------12----------12------|------12----------12------|----------14----------14--|----------14----------14--|--------------------------|--------------------------|--------------------------|--------------------------|--------------------------|--------------------------|
--12----------12----------|--12----------12----------|------12----------12------|------12----------12------|----------14----------14--|----------14----------14--|--------------------------|--------------------------|--------------------------|--------------------------|--------------------------|--------------------------|
--15----------15----------|--15----------15----------|------12----------12------|------12----------12------|----------14----------14--|----------14----------14--|--------------------------|--------------------------|--------------------------|--------------------------|--------------------------|--------------------------|
--12----------12----------|--13----------13----------|------12----------12------|------12----------12------|----------14----------14--|----------14----------14--|--------------------------|--------------------------|--------------------------|--------------------------|--------------------------|--------------------------|
--15----------15----------|--15----------15----------|------12----------12------|------12----------12------|----------14----------14--|----------14----------14--|--------------------------|--------------------------|--------------------------|--------------------------|--------------------------|--------------------------|
--12----------12----------|--12----------12----------|------12----------12------|------12----------12------|----------14----------14--|----------14----------14--|--------------------------|--------------------------|--------------------------|--------------------------|--------------------------|--------------------------|
--15----------15----------|--15----------15----------|------12----------12------|------12----------12------|----------14----------14--|----------14----------14--|--------------------------|--------------------------|--------------------------|--------------------------|--------------------------|--------------------------|
--17----------17----------|--17----------17----------|------15----------15------|------15----------15------|----------14----------14--|----------14----------14--|--------------------------|--------------------------|--------------------------|--------------------------|--------------------------|--------------------------|
gtr 2
|----------------------------------------------------------||-13-12-10---10/13-13-12-8-5-------------------------------||----------------------------------------------------------||----------------------------------------------------------||----------------------------------------------------------||----------------------------------------------------------|
|----------------------------------------------------------||-13-12---12\5-5-3-----13-12-13-15--17-15-18---------------||----------------------------------------------------------||----------------------------------------------------------||----------------------------------------------------------||----------------------------------------------------------|
Please rate this tab:
x1.0