City Of Caterpillar - Fucking Hero tab

|---------------------------||o--------------------------||--------------101010-------||--8-8-8-7-7-7-------7-7-7--||o-------------8-8-8--------||--6-6-6-5-5-5-------5-5-5--|
|---------------------------||--------------------------o||---------------------------||-8-----7-----8-----101010--||--------------------------o||-6-66665-55556-66668-8-8---| x4 .... .... ....
break
0:35|--------------------------||--------------------------||-------------101010-------||-8-8-8-7-7-7-------7-7-7--||-------------8-8-8--------||-6-6-6-5-5-5-------5-5-5--|
|---------------------------||---------------------------||-7-7-7-7-xxxx7-7-7-7-xxxx--||---------------------------||-5-5-5-5-xxxx5-5-5-5-xxxx--||---------------------------|
|--------------------------||--------------------------||-------------101010121212-||-8-8-8-7-7-7--------------||-------------8-8-8-101010-||-6-6-6-5-5-5--------------|
|---------------------------||---------------------------||-7-7-7-7-xxxx7-7-7-7-xxxx--||---------------------------||-5-5-5-5-xxxx5-5-5-5-xxxx--||---------------------------|
|-----------------------------------||o----------------------------------||--10--1010xx9--99xx12-1212xx9-99xx-||-----------------------------------||o-8---8-8-xx7--77xx10-1010xx7-77xx-||-----------------------------------|
|---------------------------||--------------------------o||-7-7-7-7-xxxx7-7-7-7-xxxx--||-7-7-7-7-xxxx7-7-7-7-xxxx--||-5-5-5-5-xxxx5-5-5-5-xxxx-o||---------------------------| x2 (with above part)
|---------------------------||---------------------------||---------------------------||-8-----------7-------------||---------------------------||-6-----------5-------------| x2
1:03|----------------------------||o---------------------------||----------------------------||--7-77xx5-55xx8-88xx2-22xx--||o-------------------x-xx----||--5-55xx3-33xx6-66xx0-00xx--|
|-----------------------------||-------------7--7----7--7---o||-------------10b10b--10b10b--||-3-3-xx5-5-xx----------------||----------------------------o| |-1-1-xx3-3-xx----------------| x2
|----------------------------||-7--7--7--7--7--7--7--------||-10b10b10b10b10b10b10b----5-||----------------------------||--------------------------3-||----------------------------|
1:15|---------------------------||o-------------------------o||--7-7-x-7-7-x-7-7-x-7-7-x--||---------------------------||o-5-5-x-5-5-x-5-5-x-5-5-x-o||---------------------------| x4
|--------------------------||o-------------------------||--7-7-10109-9-7-7-x-7-7-x-||--------------------------||o-5-5-8-8-7-7-5-5-x-5-5-x-||--------------------------|
|--------------------------||-------------------------o||-7-7----------------------||-----8-8-7-7-5-5-x-7-7-x--||-5-5---------------------o||-----6-6-5-5-3-3-x-5-5-x--| x2
|-------------------------||-------------------------||-7-7-10109-9-7-7-x-7-7-x-||-------------------------||-5-5-8-8-7-7-5-5-x-5-5-x-||-------------------------|
|--------------------------||--------------------------||-7-7-x-9-9-x-1010-12-12-x-||--------------------------||-5-5-x-7-7-x-8-8--10-10-x-||--------------------------|
1:44
|---------------------------||o--------------------------||--7-7-x-9-9-x-1010-12-12-x-||---------------------------||o-5-5-x-7-7-x-8-8--10-10-x-||---------------------------|
*2nd ending|------------------------|-------||------------------------|------o||-1010x-9-9-x-10-12-10-9-|-10-9--||------------------------|-------||-8-8-x-7-7-x-8--10-8--7-|--8-7-o||------------------------|-------| x2
|---------------------------------------||---------------------------------------||----2--0-----2--0------2--0------2--0--||---------------------------------------||---------------------------------------||-3--------3---------3---------3--------|
|--------------------------------------||--------------------------------------||----3--2-----2--0------3--2--0--2--0--||--------------------------------------||--------------------------------------||-1--------1---------1-----------------|
|--------------------------||--------------------------||--------------------------||-5-5-5-5-5-5-3-3-3-3-3-3--||--------------------------||-3-3-3-3-3-3-1-1-1-1-1-1--|
|--------------------------||--------------------------||--------------------------||-5-5-5-5-5-5-3-3-3-3-3-3--||--------------------------||-3-3-3-3-3-3-1-1-1-1-1-1--|
|--------------------------||--------------------------||--------------------------||-7-7-7-7-7-7-101010101010-||--------------------------||-5-5-5-5-5-5-8-8-8-8-8-8--|
|--------------------------||--------------------------||--------------------------||-5-----------3------------||--------------------------||-3-----------1------------|
|--------------------------||--------------------------||--------------------------||-5-----------3------------||--------------------------||-3-----------1------------|
|--------------------------||--------------------------||--------------------------||-7-----------10-----------||--------------------------||-5-----------8------------|
Tap to rate this tab
 
# A B C D E F G H I J K L M N O P Q R S T U V W X Y Z