Cky - Carver City tab

The (not so) entire album of CKY's Carver City.

Track Listing:
1. Hellions on Parade
2. ...And She Never Returned
3. Rats in the Infirmary
5. The Boardwalk Body
6. Plagued by Images
7. Karmaworks
8. Woe Is Me
9. A#1 Roller Rager
10. Old Carver's Bones
12. Fisherman's Wharf Pt. 1

Songs NOT listed:
- Imaginary Threats
- The Era of an End
- Fisherman's Wharf Pt. 2
- Doubled Up On Trauma
- Stripped Your Speech

"Hellions On Parade"
Tuning: Full Step Down (DGCFAD)

GUITAR 1 INTROD|-A|-F|-9-------12----------------|C|---9--------12-----------7-|G|-----7---------10-12-7-9-5-|D|-------0----------10-5-7---|
D|-A|-F|-9-------12----------------|C|---9--------12-------------|G|-----7---------10-12-7-9-5-|D|-------0----------10-5-7-3-|
GUITAR 1 VERSED|-A|-F|---------------------------------------------------|C|------------4-5---------4-7-5-4-5-4----------------|G|----------5-----------7-------------5--------7/9-7-|D|-0--0--0--------0--0------------------7--7\5-------|
PRE CHORUS (same for both guitars)D|-A|-F|-----------------------------------------------------------|C|---7-5---7---7\5---4-5---5-------7---7\5---0---4---4h5p4-0-|G|---5-3-3---3-----3-----3---3-------------0-2-2---2---------|D|-0---------------------------5-5---5-----------------------|
GUITAR 2 INTROD|-A|-F|-9-------12/14\12---------------|C|---9---------------------7------|G|-----7---10/12\10-12-7-9-5------|D|-------0----------10-5-7--------|
D|-A|-F|-9-------12/14\12---------------|C|---9----------------------------|G|-----7---10/12\10-12-7-9-5------|D|-------0----------10-5-7-3------|
GUITAR 2 harmonised VERSED|-A|-F|----------0-2-4------0-2-3/5-4-2-4-2----------------|C|-------------------------------------5--------5/7-5-|G|---------------------------------------5--5\2-------|D|-0--0--0--------0--0--------------------------------|
"...And She Never Returned" Tuning: Full Step Down (DGCFAD)
MAIN RIFF (x4)(Chad's intro is exactly the same as the main riff,Just played on a wah pedal)D|----------------------------------|A|----------------------------------|F|----------------------------------|C|------------------5---------------|G|--7-----------------3-3-3---3-3-3-|D|----0-0-0---0-0-0-----------------|
----------------------------------| ----------------------------------| ----------------------------------| --5---------------7-------9-------| ----3-3-3---3-3-3---5-5-5---5-5-5-| ----------------------------------|
PRE-VERSE/CHORUS (x1)|----------------------------------||----------------------------------||----------------------------------||----------------------------------||----------------------------------||----5-5-5---3---5---3---5---0---0-|
----------------------------------| ----------------------------------| ----------------------------------| ----------------------------------| --------------------5-------------| --7-7-7-7---5---7-------7---5---3-|
MAIN RIFF (x4) PRE-VERSE/CHORUS (x1) MAIN RIFF (x4) PRE-VERSE/CHORUS (x2)
CHORUS RIFF (x4)|----------------------------------||----------------------------------||----------------------------------||--7-7-7-9---------------------5-5-||----------------------------------||----------0-0-0-0-0-0-0-0-0-0-----|
----------------------------------|----------------------------------| ----------------------------------|----------------------------------| ------------------7-7-------------|------------------------------4-4-| --9-9-5-5-7-7---------5-5-7-7-9-9-|--5-5-4-4-------------------------| --------------7-7-----------------|----------5-5-5-5-5-5-5-5-5-5-----| ----------------------------------|----------------------------------|
------------------------------------| ------------------------------------| ------------------------------------| --5-5-4-4---------------------------| ----------5-5-3-3-6-6-7-7-9-9-10-10-| ------------------------------------|
PRE-VERSE/CHORUS (x1) MAIN RIFF (x4) PRE-VERSE/CHORUS (x2) CHORUS RIFF (x4)
BRIDGE RIFF (x6)--------------------------------------------------|--------------------------------------------------|--12-12-------------12-12-------------11-11-------|--------12-12-14-14-------12-12-14-14-------12-12-|--------------------------------------------------|--------------------------------------------------|
------------------------------------------------|------------------------------------------------|--12-12-------------16-16-------14-14-----------|--------12-12-14-14-------14-14-------9-9-12-12-|------------------------------------------------|------------------------------------------------|
GUITAR 2 BRIDGE RIFF (x10)(This riff plays underneath the normal bridge riff, And keeps playing until the end of the song)
|--------------------------------------------------||--12-12-------------12-12-------------10-10-------||--------12-12-14-14-------12-12-14-14-------11-11-||--------------------------------------------------||--------------------------------------------------||--------------------------------------------------|
--------------------10-10-------------10-10-14-14-| --12-12-------------------12-12-13-13-------------| --------12-12-14-14-------------------------------| --------------------------------------------------| --------------------------------------------------| --------------------------------------------------|
"Rats In The Infirmary" Tuning: Full Step Down (DGCFAD)
MAIN RIFF Guitar 1 (X4)D|-A|-F|---------------------------------|C|---------------------------------|G|-7-7-7-5-3--3--3-3-3-3-3-3-2---2-|D|-5-5-5-3-1--1--1-1-1-1-1-1-0---0-|
Guitar 2D|-----------------------------------|A|-----------------------------------|F|-----------------------------------|C|----------7--7--7-7-7-7-7-5-9---9--|G|-7-7-7-10-5--5--5-5-5-5-5-3-7---7--|D|-5-5-5-8---------------------------|
VERSE RIFF Guitar 1 (X4)D|-A|-F|-------------------------------|C|-------------------------------|G|-7--7-7-5-3--3-5-3-5-3-7-5-3-3-|D|-5--5-5-3-1--1-3-1-3-1-5-3-1-3-|
Guitar 2D|----------------------------------|A|----------------------------------|F|----------------------------------|C|10-10-10-9-7--7-9-5-9-7-10-9-7-5--|G|----------------------------------|D|-8--8--8-7-5--5-7-5-7-5-8--7-5-3--|
MAIN RIFF (X4) VERSE RIFF (X4)
CHORUS RIFF (X8)D|-A|-F|--------------------------------7/9\7--5---|C|------------------5----------------------7-|G|-0-0-0-3-0--0-3-5---7--5-3------5/7\5--3---|D|---------------------------1-1-----------5-|
"The Boardwalk Body" Tuning: Full Step Down (DGCFAD)
MAIN RIFFD||--------------------------|----------------------------|A||--------------------------|----------------------------|F||--------------------------|----------------------------|C||--------------------------|--------------11---9------9-|G||--------6-----6--7-----7--|--9-----7------------11-----|D||--0--0-----0--------0-----|-----9-----9----------------|
--------------------------|--------------------------| --------------------------|--------------------------| --------------------------|--------------------------| --------------------------|--------------7---6-------| --------6-----6--7-----7--|--9-----7-----------9---7-| --0--0-----0--------0-----|-----9-----9--------------|
GUITAR 1 IT'S TOO HARD TO WALK AWAY RIFF--------------------------|--------------------------|--------------------------|--------------------------|--------------------4-----|-----------6-----------4--|--------------------------|--4--6-----------4--6-----|--------------------------|--------------------------|--5--5--5--5--5--5-----5--|--------5-----5-----------|palm mute all the 5's on the D
--------------------------|--------------------------|--------------------------|--------------------------|--------------------------|--------------------------|--------------------6-----|--4--2-----4-----------2--|--4--4--4--4--4--4-----4--|--------0-----0--2--4-----|--------------------------|--------------------------|palm mute all the 4's on the G
GUITAR 2 IT'S TOO HARD TO WALK AWAY RIFF--------------------------|--------------------------|--------------------------|--------------------------|--------------------4-----|-----------6-----------4--|--------------------------|--4--6-----------4--6-----|--------------------------|--------------------------|--5--5--5--5--5--5-----5--|--------5-----5-----------|palm mute all the 5's on the D
--------------------------|--------------------------|--------------------------|--------------------------|--------------------------|--------------------------|--2--2--2--2--2--2--------|--4--2-----4-----------2--|-----------------------4--|--------0-----0--2--4-----|--------------------------|--------------------------|
GUITAR 1 LITTLE FIDDLY BIT BEFORE CHORUS RIFF--------------------------------------------------|--------------------------------------------------|--------------------------------------------18-18-|--11-11-11-11-11-11-11-11-11-11-11-11-11-11-------|--------------------------------------------------|--------------------------------------------------|
--------------------------------------------------|--------------------------------------------------|--------16-16-------------------16-16-------------|--18-18-------------14-14-------------------16-16-|--------------16-16-------14-14-------14-14-------|--------------------------------------------------|
GUITAR 2 LITTLE FIDDLY BIT BEFORE CHORUS RIFF--------------------------------------------------|--------------------------------------------------|--------------------------------------------13-13-|--------------------------------------------------|--11-11-11-11-11-11-11-11-11-11-11-11-11-11-------|--------------------------------------------------|
--------------------------------------------|--------------------------------------------|--------11-11---------------11-11-----------|--13-13-------------9-9---------------11-11-|--------------11-11-----9-9-------9-9-------|--------------------------------------------|
CHORUS RIFF----------------------------------|--------------------------------|----------------------------------|--------------------------------|----------------------------------|--------------------------------|----------------------------------|--2--------------2--------------|--0-0-0-0-0-0-0-0-0-0-0-0-0-0-2-4-|-----0-0-0-0-2-4----0-0-0-0-0-0-|----------------------------------|--------------------------------|
----------------------------------|----------------------------------|----------------------------------|----------------------------------|------------------------------6-6-|----------------------------------|----------------------------------|--6-6-9-9-------------9-9---------|--4-4-4-4-4-4-4-4-4-4-4-4-4-4-----|----------4-4-7-7-------------9-9-|----------------------------------|------------------7-7-----7-7-----|
GUITAR 1 AFTER CHORUS RIFF----------------------------------|--------------------------------|----------------------------------|--------------------------------|----------------------------------|------------------------7-7-5-5-|------------------------------5-5-|--9-9-5-5-7-7-------5-5---------|--7-7-7-7-7-7-7-7-7-7-7-7-7-7-----|--------------3--5--------------|----------------------------------|--------------------------------|
----------------------------------|-----------------------------|----------------------------------|-----------------------------|--4-4-----------------------------|-----------------------------|------------------------------5-5-|--9-9-5-5-7-7----------------|------7-7-7-7-7-7-7-7-7-7-7-7-----|--------------3--5-----------|----------------------------------|-----------------------------|
GUITAR 2 AFTER CHORUS RIFF----------------------------------|--------------------------------|----------------------------------|--------------------------------|----------------------------------|------------------------7-7-5-5-|------------------------------5-5-|--9-9-5-5-7-7-------5-5---------|--7-7-7-7-7-7-7-7-7-7-7-7-7-7-----|--------------3--2--------------|----------------------------------|--------------------------------|
----------------------------------|-----------------------------|----------------------------------|-----------------------------|--4-4-----------------------------|-----------------------------|------------------------------5-5-|--9-9-5-5-7-7----------------|------7-7-7-7-7-7-7-7-7-7-7-7-----|--------------3--5-----------|----------------------------------|-----------------------------|
"Plagued By Images" Tuning: Full Step Down (DGCFAD) MAIN RIFF/VERSE RIFF guitar 1 (x2 at start of song)
D|-A|-F|--------------------9-----------|C|-----------11--9------9---------|G|-9-12-9-12-------12-----11-9----|D|-----------------------------12-|
D|-A|-F|--------------------11----9-11-13-|C|-----------11--9-------11---------|G|-9-12-9-12-------12---------------|D|----------------------------------|
MAIN RIFF/VERSE RIFF guitar 2
D|-A|-F|---------------------------------|C|----------------2----------------|G|----------4-2-----2--------------|D|-2-5-2-5------5------4-2-0-------|
D|-A|-F|---------------------------------|C|----------------4----2-4-6-------|G|----------4-2-----4--------------|D|-2-5-2-5------5------------------|
END OF MAIN RIFF LEADING INTO VERSE guitar 1 (x2)
D|-A|-F|-----------------------------------------|C|-----------9----9-----------------9----9-|G|-9-12-9-12---11---11-9-12-9-12-11---11---|D|-----------------------------------------|
D|-A|-F|---------------------------------|C|---------------------------------|G|---------2---2-------------2---2-|D|-2-5-2-5---4---4-2-5-2-5-4---4---|
BRIDGE RIFF guitar 1
D|-A|-F|----------------|C|--9-8---6-8-----|G|------9-----9-6-|D|----------------|
BRIDGE RIFF guitar 2
D|-A|-F|--16-15----13-15-------|C|--------16-------16-13-|G|-----------------------|D|-----------------------|
BREAKDOWN RIFF
D|-A|-F|--------------------------------------------------|C|--------------------------------------------------|G|-6-6--6-6--6-6-6--6-6--6-6-6--6-6--6-6-6--6-6---6-|D|-0-0--0-0--0-0-0--0-0--0-0-0--0-0--0-0-0--0-0---0-|
"Karmaworks" Tuning: Full Step Down (DGCFAD)
GUITAR 1 MAIN RIFF|-|-|---------------------------------------------------------------||-12-9--------4-5-7----------7/9-7-5-7-5-7/9--------------------||-10-7--7-5-7-------7--7-5-7-----------------7---7-7------------||-10-0--------------0------------------------8---8-8-10-12-7-10-|
GUITAR 2 MAIN RIFF|-|-|-----------------7---------------------------------------------||-12-9--------7-9------------7/9-7-5-7-5-7/9--------------------||-10-7--7-5-7-------7--7-5-7-----------------7---7-7------------||-10-0--------------0------------------------8---8-8-10-12-7-10-|
GUITAR 1 VERSE RIFF (play this part in an 8th note triplet, gallop-ey feel)|-|-|----------------------------------------||-------------7/9---7----5-------5/7---5-||----------------------------5-----------||-0-0-0-0-0-0-----0----0---0---0-----0---|
|-|-|---------------------------------||-----7/9---7---5---------5/7---5-||-----------------7-5-------------||-0-0-----0---0-------7-5-----0---|on the second time, leave out the 0 on the D and 5 on the Cand just go back to the beginning of the VERSE RIFF.
GUITAR 2 VERSE RIFF|-|-|------------11/12---11----7--------9-11---9-||------------------------------7-------------||------------9-/10---9-----5--------7/9----7-||-0-0-0-0-0-0------0-----0---0-5--0------0---|
|-|-|-----11/12---11----7-------7----9-||----------------------------------||-----9-/10---9-----5-------5----7-||-0-0-------0-----0---7-5-3----0---|on the second time, leave out the parts after the 7 5 3on the D and just go back to the beginning of the VERSE RIFF.
CHORUS RIFF (COMING SOON) "Woe Is Me" Tuning: Full Step Down (DGCFAD)
Main riff:----------------------------------------------|----------------------------------------------|----------------------------------------------|-----------4~---------2~----------------------|-4-----2-4--------2-4-------0-2h4---0h2-------|-2---------2----------0-----------------0-----|
Main riff pt2----------------------------------------------|----------------------------------------------|----------------------------------------------|-----------4~---------2~----------------------|-4-----2-4--------2-4-------0-2h4-------------|-2---------2----------0-----------------0-----|
Riff 2:----------------------------------------------|----------------------------------------------|----------------------------------------------|----------------------------------------------|----------------------------------------------|-8--0-0--8--0-0--8--0-----5-5-5--1-1-1-1------|
Riff 3:------------------------------------------------------------------------------|------------------------------------------------------------------------------|-------------------------------------------2----------------------------------|--------------------------2--------2-4-2-4---4-2-4----------------------------|------------------4-2-4-2---4-2-4---------------------------------------------|-0-2-0-2-5-2-0-2------------------------------------0-2-0-2-5-2-0-2--0-1-0-2--|
Riff 4/bridge riff (2:33-2:54):------------------------------------------------------------------|------------------------------------------------------------------|------------------------------------------------------------------|-----------------4-4-4-4-4-4-6-4-2-2-2-2-2-2----------------------|-------------2-4-----------------------------0-2-4-4-0-2----------|-2-2-2-2-2-2---------------------------------------------0-0-0-0--|
^that riff is played 4 times, but on the 2nd time, you want to play this:
------------------------------------------------------------------|------------------------------------------------------------------|------------------------------------------------------------------|-----------------4-4-4-4-4-4-6-4-2-2-2-2-2-2-------------2-2-2-2--|-------------2-4-----------------------------0-2-4-4-4-4----------|-2-2-2-2-2-2------------------------------------------------------|
On riff 3, you'll want to play the very first part more than once, that part is also the riff that's played when the song fades out. On riff 2, sometimes it sounds like there's a up on the 8 fret note. enjoy. "A#1 Roller Rager" Tuning: Full Step Down (DGCFAD) Riff 1
--------------------------------------------------|--------------------------------------------------|--------------------------------------------------|--------------------------------------------------|--9--9--------9--9--------------9--9--------6--6--|--------7--7--------7--7--7--7--------4--4--------|
--------------------------------------------------|--------------------------------------------------|--------------------------------------------------|--------------------------------9--9--------8--8--|--9--9--11-11-------11-11-------------11-11-------|--------------0--0--------0--0--------------------|
Riff 2/Verse
--------------------------------------------------|--------------------------------------------------|--------------------------------------------------|--------------------9--9--------------------------|--------------------------9--9--------9--9--------|--7--7--7--7--7--7--------------7--7--------7--7--|
--------------------------------------------------|--------------------------------------------------|--------------------------------------------------|--------------------6--6--------------------------|--------------------------6--6--------6--6--------|--4--4--4--4--4--4--------------4--4--------4--4--|
--------------------------------------------------|--------------------------------------------------|--------------------------------------------------|--------------------------------------------------|--------------4--4--6--6--------4--4--------2--2--|--2--2--2--2--------------2--2--------2--2--------|
--------------------------------------------------|--------------------------------------------------|--------------------------13-13-------------11-11-|--------6--6--9--9--11-11-------11-11-9--9--------|--------------------------------------------------|--0--0--------------------------------------------|
Riff 3/ pre chorus
---------------------------------|---------------------------------|--4--4--4--4----8--8--8--8--8--8-|---------------------------------|---------------------------------|---------------------------------|
------------------------------------------------|------------------------------------------------|--4--4--4--4--8--8--8--4--4--6--6---------------|-----------------------------------6--6--6--6---|------------------------------------------------|------------------------------------------------|
---------------------------------------------------------|---------------------------------------------------------|--6--6--6--6--6--6---------6-6-----6-6-------------------|-------------------6-6-6-6-----4-4-----2-2-2-2-----------|---------------------------------------------------------|---------------------------------------------------------|
End of the pre-chorus riff at the last time played-------------------------------------|-------------------------------------|-----11-11---------------------------|-9-9-------9-9-13-13-9-9-------------|-------------------------11-11-11-11-|-------------------------------------|
Chorus Riff (this riff speaks to deron)
-----------------------------|-----------------------------|--6S-8-------------------6---|-------------------9---------|-----------------------------|-------7--7--7--7-----7------|
----------------------------------------------------------|----------------------------------------------------------|--6S-8--------------------6-----8-------------------------|-------------------9---------------6----------------------|----------------------------------------------------------|-------7--7--7--7-----7------7----------0--0--0--0--0--0--|
----------------------------------------|----------------------------------------|--6-4-6----------6-4-6--4--3--4---------|----------------------------------------|----------------------------------------|-----------0--0-------------------------|
"Old Carver's Bones" Tuning: Full Step Down (DGCFAD)
INTROD||----------------------|A||----------------------|F||--2----3----4----5----|C||--2----3----4----5----|G||--1----2----3----4----|D||--0----2----2----4----|
GUITAR 1 SPOOKY RIFF--------------------------|--------------------------|--------------------------|--------------------------|--------------------------|--------------------------|--------------7-----------|--------------7-----------|-----5-----5--------6-----|--4--5-----5--------6-----|--3-----3--------3-----3--|--------3--------3-----3--|
GUITAR 2 SPOOKY RIFF|--------------5-----------|--------------5-----------||--------------------------|--------------------------||-----7-----7--------8-----|--6--7-----7--------8-----||--5-----------------------|--------------------------||--------------------------|--------------------------||--------3--------3-----3--|--------3--------3-----3--|
GUITAR 1 MAIN RIFF--------------------------|--------------------------|--------------------------|--------------------------|--------------------------|--------------------------|--------------------------|--------------------------|-----5-----5--3--1-----1--|-----5-----3--3--1-----1--|--3-----3-----------3-----|--3-----3-----------3-----|
--------------------------|------------------------|--------------------------|------------------------|--------------------------|--------5----------5----|--------------------------|--------3----------3----|-----5-----5--3--1-----1--|------------------------|--3-----3-----------3-----|--1----------1----------|
GUITAR 2 MAIN RIFF--------------------------|--------------------------|--------------------------|--------------------------|-----7-----7--5--3-----3--|-----7-----5--5--3-----3--|--5-----5-----------5-----|--5-----5-----------5-----|--------------------------|--------------------------|--------------------------|--------------------------|
--------------------------|------------------------|--------------------------|------------------------|-----7-----7--5--3-----3--|--------3----------3----|--5-----5-----------5-----|--------3----------3----|--------------------------|------------------------|--------------------------|--1----------1----------|
GUITAR 1 PALM MUTE BEFORE HEAVY PART RIFF------------------12--------------|------------------12--------------|----------------------------------|----------------------------------|----------------------------------|----------------------------------|----------------------------------|----------------------------------|--10--12------12----------13------|--10--12------12----------13------|----------10----------10------10--|----------10----------10------10--|(i know deron doesn't play with 6 strings but he has to beusing chad's guitar with 6 strings on this part on the album)
GUITAR 2 PALM MUTE BEFORE HEAVY PART RIFF (plays the same as GUITAR 1)
GUITAR 1 HEAVY CHORUS RIFF|-----------------------|-----------------------------||-----------------------|-----------------------------||-----------------------|-----------------------------||--5--5----5------------|--8--8----8----10-10---10----||--5--5----5------------|--5--5----5-----6--6----6----||--3--3----3------------|--6--6----6-----8--8----8----|
-----------------------|------------------------------|-----------------------|------------------------------|-----------------------|------------------------------|--1--1----1------------|------------------------------|--3--3----3------------|--13-13---13----12-12---12----|--5--5----5------------|--11-11---11----10-10---10----|
GUITAR 2 HEAVY CHORUS RIFF|-----------------------|-----------------------------||-----------------------|-----------------------------||--7--7----7------------|-----------------------------||--5--5----5------------|--8--8----8----10-10---10----||--5--5----5------------|--5--5----5-----8--8----8----||-----------------------|--6--6----6-----8--8----8----|
.|-----------------------|------------------------------||-----------------------|------------------------------||-----------------------|--15-15---15----14-14---14----||--7--7----7------------|--13-13---13----12-12---12----||--5--5----5------------|--13-13---13----12-12---12----||--5--5----5------------|------------------------------|
GUITAR 1 PART AFTER HEAVY CHORUS RIFF-----------------------------|-----------------------------|-----------------------------|-----------------------------|---1-0-----3/5-3-1-6---------|-3-----1-3---------6---------|
-----------------------------------|-----------------------------------|-----------------------------------|-----------------------------------|-----1-0-----3/5-3-1-6-6/8-5-------|-1-3-----1-3---------6-6/8-5-------|
GUITAR 2 PART AFTER HEAVY CHORUS RIFF (plays the same as GUITAR 1)
GUITAR 1 HAPPY SOUNDING BRIDGE RIFF--------------------------|--------------------------|--------------------------|--------------------------|--------------------------|--------------------------|--------------7-----------|--------------7-----------|-----5-----5--------6-----|--4--5-----5--------6-----|--3-----3--------3-----3--|--------3--------3-----3--|
--------------------------|--------------------------|--------------------------|--------------------------|--------------------------|--------------------------|--------------10----------|--------------10----------|-----8-----8--------9-----|--6--8-----8--------9-----|--6-----6--------6-----6--|--------6--------6-----6--|
GUITAR 2 HAPPY SOUNDING BRIDGE RIFF|--------------5-----------|--------------5-----------||--------------------------|--------------------------||-----7-----7--------8-----|--6--7-----7--------8-----||--5-----------------------|--------------------------||--------------------------|--------------------------||--------3--------3-----3--|--------3--------3-----3--|
|---------------8----------|---------------8----------||--------------------------|--------------------------||-----10----10-------11----|--8--10----10-------11----||--8-----------------------|--------------------------||--------------------------|--------------------------||--------6--------6-----6--|--------6--------6-----6--|
"Fisherman's Wharf, Pt. 1" uning: Full Step Down (DGCFAD)
INTRO|-------------||-------------||-------------||-------------||-------------||-4p3h6p3-1-2-|
VERSE|-----------------------------------||-----------------------------------||-----------------------------------||-10---------13---------9-----------||-8----------11---------7-----------||-----------------------------------|
CHORUS/NEW RIFF guitar 1|--------------------||--------------------||----------------8---||-------------10---8-||-8-6-8-6/8-8--------||--------------------|
CHORUS/NEW RIFF guitar 2|--------------------||--------------------||--------------------||-------------10---8-||-8-6-8-6/8-8----6---||--------------------|
BRIDGE RIFF|-------------------||-------------------||-------------------||-333333------3/4---||--------2----------||----------1------1-|
Tap to rate this tab
 
# A B C D E F G H I J K L M N O P Q R S T U V W X Y Z