Cky - Rats In The Infirmary tab

[Rats In The Infirmary]
[Carver City]
[CKY]

Tuning: DGCFAD (C Standard/1 Step Down)
joshuaoliveira@hotmail.com

[Riff 1, Guitar 1 & 2] - [00:00] - [00:18]----| 4x- --------------------------------------------|- --------------------------------------------|- ---------2---2---2-2-22--4---4--------------|- -2-2-25--0---0---0-0-00--2---2--------------|- -0-0-03-------------------------------------|- --------------------------------------------|
-- ---------------------------------|- ---------------------------------|- ---------------------------------|- ---------------------------------|- -7-7-75--3---3---3-3-33--2---2---|- -5-5-53--1---1---1-1-11--0---0---|
----------------------------------------------------------------------------
[Riff 2a] - [00:18] - [00:37]--------| 4x- -----------------------------------|- -----------------------------------|- -----------------------------------|- ------------------------------5-5--|- -7---7---55-3---3-5-35-37-5-3-3-3--|- -5---5---33-1---1-3-13-15-3-1-3----|
[Riff 2b] - [00:18] - [00:37]----------| 4x- -------------------------------------|- -------------------------------------|- -------------------------------------|- -------------------------------------|- -3---3--3-2-------2--2--2/3-2--------|- ------------5---5---5--5------5-3----|
[Riff 2c] - [00:18] - [00:37]---------------------| 4x- ------------------------------------------------|- ------------------------------------------------|- ------------------------------------------------|- -10---10--10-9----------9---9---9/10-9----------|- ----------------12---12---12--12-------12-10----|- ------------------------------------------------|
----------------------------------------------------------------------------
[Riff 1] - [00:37] - [00:56]----| 4x[Riff 2] - [00:56] - [01:15]----| 4x
----------------------------------------------------------------------------
[Riff 3] - [01:15] - [01:52]--------------------| 8x- ----------------------------------------------|- ----------------------------------------------|- ----------------------------------------------|- ----------------------------------------------|- ------------------10-5/7---3-------5br--------|- -5-55-8-5--7-8-10--------5---1-1-------8\5-5--|PM .. ...... .
for those of you that dont like this cuz of all the technicalities, this is the riff if you dont slide or bend anything.. :P
[Riff 3 Alternate] - [01:15] - [01:52]--------| 8x- --------------------------------------------|- --------------------------------------------|- --------------------------------------------|- --------------------------------------------|- ------------------10-7---3-------5-6-5------|- -5-55-8-5--7-8-10------5---1-1---------8-5--|PM .. ...... .
..cuz you dont Need to haha its just more proper if you do :P :P i just like percision. and Deron's quick slides are part of what make him so genious! aha imo. ----------------------------------------------------------------------------
[Riff 4a] - [01:52] - [02:11]- ---------------------------------------------------------------------|- ---------------------------------------------------------------------|- ---7br-5---9/12-9\7---9-7\5-7/9-------7br-5---9/12-9\7---9-7\5-7/9---|- -7------------------------------5---7------------------------------5-|- ---------------------------------------------------------------------|- ---------------------------------------------------------------------|
- -----------------------------------------------------|- -----------------------------------------------------|- -12b-------12Prb-[12Pr]-[12Pr]-[12Prbr]-----17p16h17-|- -----------------------------------------------------|- -----------------------------------------------------|- -----------------------------------------------------|
- -15h17p15----------15h17p15----------|- ----------17p16h17----------17p16h17-|- -------------------------------------|- -------------------------------------|- -------------------------------------|- -------------------------------------|
- -15h17p15h17p15----------15h17p15h17p15----------|- ----------------17p16h17----------------17p16h17-|- -------------------------------------------------|- -------------------------------------------------|- -------------------------------------------------|- -------------------------------------------------|
- -15h22p15h20p15-------15h19p15h20p15-------|- ----------------17p16----------------17p16-|- -------------------------------------------|- -------------------------------------------|- -------------------------------------------|- -------------------------------------------|
- -15h20p15h20p15-------15h20p15h20p15-------|- ----------------17p16----------------17p16-|- -------------------------------------------|- -------------------------------------------|- -------------------------------------------|- -------------------------------------------|
- -15h20p15h20p15-------15h20p15h20p15-------|- ----------------17p16----------------17p16-|- -------------------------------------------|- -------------------------------------------|- -------------------------------------------|- -------------------------------------------|
- -15h22p15h22p15-------22b------------------|- ----------------17p16----------------------|- -------------------------------------------|- -------------------------------------------|- -------------------------------------------|- -------------------------------------------|
yeaaaa, those are 32nd notes! wtf :P basically, the -15h17p15h17p15- is the same as -15h17p15- only hitting the first two notes twice, and twice as fast! this next part is just baically an octave pedal :P
[Riff 4b] - [01:52] - [02:04]- ------------------------------------------------|- ----15br-13---17/20-17\15---17-15\13-15/17------|- -14----------------------------------------12---|- ------------------------------------------------|- ------------------------------------------------|- ------------------------------------------------|
- ------------------------------------------------|- ----15br-13---17/20-17\15---17-15\13-15/17------|- -14----------------------------------------12---|- ------------------------------------------------|- ------------------------------------------------|- ------------------------------------------------|
- -15b-------15prb-|- -----------------|- -----------------|- -----------------|- -----------------|- -----------------|
[Riff 2] - [01:52] - [02:11] - 4x ----------------------------------------------------------------------------
[Riff 1] - [02:11] - [02:30]----| 4x[Riff 2] - [02:30] - [02:49]----| 4x[Riff 3] - [02:49] - [03:31]----| 8x
---------------------------------------------------------------------------- [Symbols] b Bend P Pre-bend r Release h Hammer On p Pull Off / Slide Up \ Slide Down PM... Palm Mute notes with (...) under them :D
Tap to rate this tab
 
# A B C D E F G H I J K L M N O P Q R S T U V W X Y Z