Cky - Shippensbam-shippensberg tab

Mainriff intro*4

|----------------------------------||----------------------------------||----------------------------------||-------------7-5--------------2---||5-5-7^8---------------5---3-3---3-||--------6-6-------3-3---3---------|
Verse 1 (Repeat throughout verse):
|----------------------------------------||----------------------------------------||----------------------------------------||77--------77--------77--------77--------||55---55---55---55---55---55---55---55---||-----33--------33--------33--------33---|
After 4 repetitions the bass plays the mainriff in the background.
Bridge: |Guitar 2 on top of guitar 1|----------------|----------------||----------------|----------------||----------------|----------------||----------------|----------------||3~~~5~~~3~~~5~~~|3333555533335555||1~~~3~~~1~~~3~~~|1111333311113333|
Prechorus:*8
|----------------------------------||----------------------------------||----------------------------------||-------------7-5--------------2---||5-5-7^8---------------5---3-3---3-||--------6-6-------3-3---3---------|
Distorted wah wah guitar on top of the other (listen to the song to hear when to start)*3
|---------------------------------||---------------------------------||---------------------------------||---------------------------------||8-8-7-7-5-5-7-7-8-8-10-10-8-8-7-7||---------------------------------|
Chorus part 1:
|----------------||----------------||----------------||----------------||3333555533335555||1111333311113333|
Chorus part 2: The last part is impossible to write down propertly but this is the chords he plays, so listen and find out what he actually does ;)
|------------------------------------||------------------------------------||------------------------------------||------------------------------------||8-8-7-12-10-10-10-12-8xxxxx8^7^8xxx-||6-6-5-10-8--8--8--10-6xxxxx6^5^6xxx-|
|-----------------------------------------||-----------------------------------------||-----------------------------------------||-----------------------------------------||8-8-7-7-10-10-10-12-8-8-7-7-5xxxx5^3^5xxx||6-6-5-5-8--8--8--10-6-6-5-5-3xxxx3^1^3xxx|
Silence Bridge 2:*4
|-------------------------------||-------------------------------||-------------------------------||7-7-7-7-----------------5-5-5-5||5-5-5-5-8-8-8-8-5-5-5-5-3-3-3-3||--------6-6-6-6-3-3-3-3--------|
Bridge 3:*4
|-------------------------------||-------------------------------||-------------------------------||7-7---------------------5-5----||5-5-----8-8-----5-5-----3-3----||--------6-6-----3-3------------|
Prechorus:*4
|----------------------------------||----------------------------------||----------------------------------||-------------7-5--------------2---||5-5-7^8---------------5---3-3---3-||--------6-6-------3-3---3---------|
Chorus part 1:
|------------------------------------||------------------------------------||------------------------------------||------------------------------------||8-8-7-12-10-10-10-12-8xxxxx8^7^8xxx-||6-6-5-10-8--8--8--10-6xxxxx6^5^6xxx-|
Chorus part 1 variation:
|------------------------------------------------------------------------------||------------------------------------------------------------------------------||------------------------------------------------------------------------------||------------------------------------------------------------------------------||8-8-7-12-10-10-10-12-8xxxxx8^7^8xxx8xxxxx8^7^8xxx8xxxxx8^7^8xxx8xxxxx8^7^8xxx-||6-6-5-10-8--8--8--10-6xxxxx6^5^6xxx6xxxxx6^5^6xxx6xxxxx6^5^6xxx6xxxxx6^5^6xxx-|
The end. Mark@pirater.dk
Tap to rate this tab
 
# A B C D E F G H I J K L M N O P Q R S T U V W X Y Z