Cky – Familiar Realm tab

CKY:Familiar Realm
Off the album:An Answer Can Be Found
Tuning:DGCFAD
Effects:oc-2,Wah,Distortion

I reccomend this rig set-up for the song:
       
                  GUITAR---connected to---WAH(Instrument input)
          WAH(Amp input)------------------OC2(Instrument input)
        OC2(mono output)------------------DISTORTION(input)
DISTORTION(stereo input)------------------AMP(input)

For the solo:Since my Jackson does not have a whammy bar
I improvised in the solo.It's just a quick tremelo-picked slide.

Wah is clicked off until solo. (Click on at solo)
                               (off after solo)
Oc-2 is clicked on until solo. (Click off at solo)
                               (back on after solo)

Distortion is throughout the song.Not through the amp.
Through a distortion pedal or something of that nature.
I gotta BOSS ME-33.There's my example.

And sorry about the position changes.

Intro (fade in)|---------------------------------------------------------||---------------------------------------------------------||---------------------------------------------------------||-------2-----2---------------------------------2-----2---||-4-2-4---4-2---2-2---------------------2-4-2-4---4-2---2-||-----------------0-0-0-0-0-0-0-0-0-0-0-------------------| - - - - - - - - -
|---------------------------------------------------------------||---------------------------------------------------------------||---------------------------------------------------------------||--------------------------------------------------------/6-4-2-||-0-0-0-7-0-4-0-4-6-7-6/9-0-0-0-9-0-7-0-6-7-9-7/11--------------||--------------------------------------------------0-0-0--------|
- - - Verse 1|---------------------------|-----------------------------------------||---------------------------|-----------------------------------------||---------------------------|-----------------------------------------||-4-2-2---4-------2---6h7---|-------------------------------2-----2---||-------4---4-2-4---4-----7-|-2---------------------2-4-2-4---4-2---2-||---------------------------|-0-0-0-0-0-0-0-0-0-0-0-------------------| * - - - - - - - - -
|---------------------------------------------------------------------||---------------------------------------------------------------------||---------------------------------------------------------------------||-----------------------------------------------------------7-7---9-9-||-2-------------------------------------------------------------------||-0-0-0-0-0-0-0-0-0-0-2-2-2-2-2-2-2-2-2-4-4-4-5-5-5-5-5-5-5-----5-----| - - - - - - - - - - - - - - - - - - - - - - - - - - - - -
|-------------------------------------------------------------------------------||-------------------------------------------------------------------------------||-------------------------------------------------------------------------------||-------------------------------2-----2-------------------------------2-----2---||-2---------------------2-4-2-4---4-2---2-2-------------------------4---4-2---2-||-0-0-0-0-0-0-0-0-0-0-0-------------------0-0-0-0-0-0-0-0-0-0-0-0-0-------------| - - - - - - - - - - - - - - - - - - - -
|---------------------------------------------------------------------||---------------------------------------------------------------------||---------------------------------------------------------------------||-----------------------------------------------------------7-7---9-9-||-2-------------------------------------------------------------------||-0-0-0-0-0-0-0-0-0-0-2-2-2-2-2-2-2-2-2-4-4-4-5-5-5-5-5-5-5-----5-----| - - - - - - - - - - - - - - - - - - - - - - - - - - - - -
|------------------------------------------------||------------------------------------------------||------------------------------------------------||-------------------------------2-----2---/6h7---||-2---------------------2-4-2-4---4-2---2------7-||-0-0-0-0-0-0-0-0-0-0-0--------------------------| - - - - - - - - -
Chorus|-----------------------------------------------------------------------------------------||-----------------------------------------------------------------------------------------||-----------------------------------------------------------------------------------------||--------------------------------------------------------/6-4-2-4-2-2---4-------2---6h7---||-0-0-0-7-0-4-0-4-6-7-6/9-0-0-0-9-0-7-0-6-7-9-7/11--------------------4---4-2-4---4-----7-||--------------------------------------------------0-0-0----------------------------------|
|-----------------------------------------------------------------------------------------||-----------------------------------------------------------------------------------------||-----------------------------------------------------------------------------------------||--------------------------------------------------------/6-4-2-4-2-2---4-------2---6h7---||-0-0-0-7-0-4-0-4-6-7-6/9-0-0-0-9-0-7-0-6-7-9-7/11--------------------4---4-2-4---4-----7-||--------------------------------------------------0-0-0----------------------------------|
Verse 2|---------------------------------------------------------------------------------||---------------------------------------------------------------------------------||---------------------------------------------------------------------------------||---------------------------------2-----2-------------------------------2-----2---||-11/---------------------2-4-2-4---4-2---2-2-------------------------4---4-2---2-||-0---0-0-0-0-0-0-0-0-0-0-------------------0-0-0-0-0-0-0-0-0-0-0-0-0-------------| - - - - - - - - - - - - - - - - - - - -
|---------------------------------------------------------------------||---------------------------------------------------------------------||---------------------------------------------------------------------||-----------------------------------------------------------7-7---9-9-||-2-------------------------------------------------------------------||-0-0-0-0-0-0-0-0-0-0-2-2-2-2-2-2-2-2-2-4-4-4-5-5-5-5-5-5-5-----5-----| - - - - - - - - - - - - - - - - - - - - - - - - - - - - -
|-----------------------------------------||-----------------------------------------||-----------------------------------------||-------------------------------2-----2---||-2---------------------2-4-2-4---4-2---2-||-0-0-0-0-0-0-0-0-0-0-0-------------------| - - - - - - - - -
Play Chorus
Pre Solo Riff|-----------------------------------------||-----------------------------------------||-----------------------------------------||-------------------------------2-----2---||-2---------------------2-4-2-4---4-2---2-||-0-0-0-0-0-0-0-0-0-0-0-------------------| - - - - - - - - -
Solo (Wah)|-18(19)-17(18)-16(17)-14-12-11~~-------------------------||---------------------------------14(15)(15)(15)(15)/12~~-||---------------------------------------------------------||---------------------------------------------------------||---------------------------------------------------------||---------------------------------------------------------|
|-23/t--------------------------------------------||-------------------------------------------------||------13t--------11t--------21t--------23~~-23~~-||-------------------------------------------------||-------------------------------------------------||-------------------------------------------------|
|--------------------------------------------------------------------------||-21~~-21-21(23)21-19~~-19~~19(21)19-17~~17~~17(19)17-16~~16-16(17)16-12~~-||--------------------------------------------------------------------------||--------------------------------------------------------------------------||--------------------------------------------------------------------------||--------------------------------------------------------------------------|
Verse 3|---------------------------------------------------------------------------------------||---------------------------------------------------------------------------------------||---------------------------------------------------------------------------------------||---------2-----2-------------------------------------------------------------7-7---9-9-||-2-4-2-4---4-2---2-2-------------------------------------------------------------------||-------------------0-0-0-0-0-0-0-0-0-0-2-2-2-2-2-2-2-2-2-4-4-4-5-5-5-5-5-5-5-----5-----| - - - - - - - - - - - - - - - - - - - - - - - - - - - - -
|-----------------------------------------||-----------------------------------------||-----------------------------------------||-------------------------------2-----2---||-2---------------------2-4-2-4---4-2---2-||-0-0-0-0-0-0-0-0-0-0-0-------------------| - - - - - - - - -
Play Chorus
Outro (fades out on 3rd time) |---------------------------------------------------------------||---------------------------------------------------------------||---------------------------------------------------------------||--------------------------------------------------------/6-4-2-||-0-0-0-7-0-4-0-4-6-7-6/9-0-0-0-9-0-7-0-6-7-9-7/11--------------||--------------------------------------------------0-0-0--------| - - -
|---------------------------------------------------------------||---------------------------------------------------------------||---------------------------------------------------------------||--------------------------------------------------------/6-4-2-||-0-0-0-7-0-4-0-4-6-7-6/9-0-0-0-9-0-7-0-6-7-9-7/11--------------||--------------------------------------------------0-0-0--------| - - -
|---------------------------------------------------------------||---------------------------------------------------------------||---------------------------------------------------------------||--------------------------------------------------------/6-4-2-||-0-0-0-7-0-4-0-4-6-7-6/9-0-0-0-9-0-7-0-6-7-9-7/11--------------||--------------------------------------------------0-0-0--------| - - -
|---------------------------------------------------------------||---------------------------------------------------------------||---------------------------------------------------------------||--------------------------------------------------------/6-4-2-||-0-0-0-7-0-4-0-4-6-7-6/9-0-0-0-9-0-7-0-6-7-9-7/11--------------||--------------------------------------------------0-0-0--------| - - -
Kevin Johnson 2007
Please rate this tab:
x1.0