Clash - Jimmy Jazz tab version 2

Tabbed by: Xtrummer
Email: marcoscampot@hotmail.com

Aclaracion : Los Espacios No Marcan Ningun Ritmo , Tengan En Claro El Ritmo De Los
Acordes Y Del Punteo, Antes De Ver La Tablatura...

Attention : The Spaces Not Have The Rhythm, Please Listen The Song Before See The Tab...

br = Bend And Ralease
b = Bend
h = Hammer On
s = Slide
X = Palm Out
()= Gosth Note

And Pull Of , I Thing Not Use In This Song......

Y el Pull Of, Creo Que No Lo Uso En Esta Cancion.. ( Que alguien me corriga si me 
equivoque por mensaje privado o por donde sea )

My English Is .................. Sorry....

-----------------2--2--X---------------5---- |---2-2-2--X--1---1--1--X---2--2--2--X--3---- |---2-2-2--X--2---2--2--X---2--2--2--X--2---- |----------X--1-------------4--4--4--X------- |-------------------------------------------- |-------------------------------------------- |
-5---------------0--0--0-X-0-----2-----0---- |-3--3--0-2-2-2-0-0--0--0-X-2-0---3--0--2---- | REPEAT 3X-2--2----2-2-2---1--1--1-X-2-----2-----2---- |-----------------2--2--2-------------------- |-------------------------------------------- |-------------------------------------------- |
|
----0--0------ |--0-0--0------ |----1--0------ |-------------- |-------------- |-------------- |
Luego Hacer
----0-0-0-0-2-2-2-2--0--2-2-2-2-2-2-2------- |-2--2-2-2-2-1-1-1-1--0--2-2-2-2-2-2-2------- |-2--2-2-2-2-2-2-2-2--0--2-2-2-2-2-2-2------- |-------------------------------------------- |-------------------------------------------- |-------------------------------------------- |
-0-0-0-0--0-0-0-0-0--0-0-0-0-0-0--0--0--2--- |-3-3-3-3--2-2-2-2-2--1-1-1-1-1-1--2--0--3--- | REPEAT 2X-5-5-5-5--2-2-2-2-2--1-1-1-1-1-1--2--0--2--- |-4-4-4-4------------------------------------ |-------------------------------------------- |-------------------------------------------- |
-0-0-0-0-0-------- |-0-2-0-0-0-------- |-0-2-0-1-1-------- |------------------ |------------------ |------------------ |
ANTES DEL SOLO / BEFORE OF SOLO
--0-0-0-0-0-0--0--0--2-0-0-0--0--|--1-1-1-1-1-1--2--0--3-0-2-2--1--|--1-1-1-1-1-1--2--0--2-0-2-2--1--|---------------------------------|---------------------------------|---------------------------------|
MICK JONES FIRST SOLO / PRIMER SOLO / ( Not Rhythm , Remember / No Tiene Ritmo )
-------------------------------------------|-------------------------------------------|-------------------------------------------|-----7--7s16-------7h9--9b-7--9b-----7--9b-|-7-9-----------7h9---------------7h9-------|-------------------------------------------|
-------------------------------------------|----------------------------9br------------|--------------------9--7s9------9-9-7------|9b--9b--9b--9br--7--------------------9b---|-------------------------------------------|-------------------------------------------|
--------------------------------------------|--------------------------------------------|------7--7b--7br----------------------------|-7-10------------10-----7-7(s)-----7--10s11-|--------------------7s9--------7s9----------|--------------------------------------------|
---------------12------------12------------|------10--12b-----(12)--12b------12br-12br-|9--11--------------------------------------|-------------------------------------------|-------------------------------------------|-------------------------------------------|
-------------------------------------------|-10----------10----------------------------|----(9h)-11------11-9----------------------|-----------------------11-9----------------|-------------------------------------------|-------------------------------------------|
A partir De Ahora Las Cosas Se Complican Un Poco Más , Es Menos Repetitivo....
--0----0---0-0---0-0-------------2-----0---|--2----2---2-2---2-2---1-----1---1-----2---|--2----2---2-2---2-2---2-----2---2-----2---|-----------------------1-----1-------------|-------------------------------------------|-------------------------------------------|
--2----2---2-2---2-2---------0----0--0----0-|--2----2---2-2---2-2---------3----3--3----3-|--2----2---2-2---2-2---------5----5--5----5-|-----------------------------4----4--4----4-|--------------------------------------------|--------------------------------------------|
-0----0---0-0---0-0---0-------0----0---0-0--0-|-2----2---2-2---2-2---0-------0----0---0-0--0-|-2----2---2-2---2-2---1-------1----1---1-1--1-|----------------------------------------------|----------------------------------------------|----------------------------------------------|
-0-0--2--2---2-0--0-------0-0--0-----0-0---0-|-2-0--3--3---3-0--2-------0-0--0-----0-0---0-|-2-0--2--2---2-0--2-------0-1--1-----1-1---1-|---------------------------------------------|---------------------------------------------|---------------------------------------------|
--0----0---0-0---0-0--------------2------0--|--2----2---2-2---2-2---1------1---1------2--|--2----2---2-2---2-2---2------2---2------2--|-----------------------1------1-------------|--------------------------------------------|--------------------------------------------|
--2----2---2-2---2-2---------0----0--0----0-|--2----2---2-2---2-2---------3----3--3----3-|--2----2---2-2---2-2---------5----5--5----5-|-----------------------------4----4--4----4-|--------------------------------------------|--------------------------------------------|
--0----0---0-0---0-0---0----0----0---0-0--0-|--2----2---2-2---2-2---0----0----0---0-0--0-|--2----2---2-2---2-2---1----1----1---1-1--1-|--------------------------------------------|--------------------------------------------|--------------------------------------------|
--0----2---0-----0----0---0----0----0----0--|--2----3---2-----0----0---2----2----2----2--|--2----2---2-----1----1---2----2----2----2--|--------------------------------------------|--------------------------------------------|--------------------------------------------|
------------2---2-2------2----2----2---2-2----|--1----1----1---1-1------2----2----2---2-2----|--2----2----2---2-2------2----2----2---2-2----|--1----1-----------------5----5----5---5-5----|----------------------------------------------|----------------------------------------------|
--2--0-----0----0--0------0----0----0----0--0--|--3--3-----3----3--3------2----2----2----2--0--|--2--2-----2----2--2------2----2----2----2--1--|-----------3----3--3------2----2----2----2--2--|-----------------------------------------------|-----------------------------------------------|
------0----0----0--0------0--0--2--L---2-0--0--|------0----0----0--2------2--0--3--L---3-0--2--|------1----1----1--2------2--0--2--L---2-0--2--|------2----2----2------------------------------|-----------------------------------------------|-----------------------------------------------|
-----0-0--0-----0-0------0----0----0----0-----|-----2-0--0-----0-0------2----2----2----2-----|-----2-0--1-----1-1------2----2----2----2-----|----------------------------------------------|----------------------------------------------|----------------------------------------------|
------------2---2-2------2----2----2---2-2----|--1----1----1---1-1------2----2----2---2-2----|--2----2----2---2-2------2----2----2---2-2----|--1----1-----------------5----5----5---5-5----|----------------------------------------------|----------------------------------------------|
--2--0-----0----0--0------0----0----0----0--0--|--3--3-----3----3--3------2----2----2----2--0--|--2--2-----2----2--2------2----2----2----2--1--|-----------3----3--3------2----2----2----2--2--|-----------------------------------------------|-----------------------------------------------|
En Esta Parte Se Usan Trillizos
------0----0----0--0--------------------------------|------0----0----0--2----2--2--2--2--2--2--2---------|------1----1----1--2----2--2--2--2--2--2--2---------|------2----2----2-------2--2--2--2--2--2--2---------|----------------------------------------------------|----------------------------------------------------|
--------------------------------------------------|-----9b------7\-----------------------------------|-----------------------7br-----x--7----5----------|-------------------------------------------7---7--|--------------------------------------------------|--------------------------------------------------|
---------------------------------------------------|---------------------------------------------------|--4-5-----------------------------------------9----|-------7----7-----------7---7----9----9s---10------|-----------------7--9------------------------------|---------------------------------------------------|
-----------------------------------------------|---------10--10---------12----s-------13-------|--9---11---------------------------------------|-----------------------------------------------|-----------------------------------------------|-----------------------------------------------|
-----0----0----0----0----------------2---2-2----|-----2----2----2----2------1----1----1---1-1----|-----2----2----2----2------2----2----2---2-2----|-----2----2----2----2------1----1---------------|------------------------------------------------|------------------------------------------------|
--2----2----2---2-2------2--0-----0----0--0-----|--2----2----2---2-2------3--2-----3----3--3-----|--2----2----2---2-2------2--2-----5----5--5-----|--5----5----5---5-5---------------4----4--4-----|------------------------------------------------|------------------------------------------------|
--0----0----0----0--0--------0----0----0--0-----|--2----2----2----2--0--------0----0----2--2-----|--2----2----2----2--1--------1----1----2--2-----|--2----2----2----2--2--------2----2-------------|------------------------------------------------|------------------------------------------------|
-----0-0--2-----2-0--0-------0-0--0-------x----|-----2-2--3-----3-0--2-------2-0--0-------x----|-----2-2--2-----2-0--2-------2-0--1-------x----|-----------------------------------------------|-----------------------------------------------|-----------------------------------------------|
--0------0--------0----------------|--2------1--------2----------------|--2------0--------2----------------|-----------------------------------|-----------------------------------|-----------------------------------|
THE END !
Tap to rate this tab
 
# A B C D E F G H I J K L M N O P Q R S T U V W X Y Z