Clash - Janie Jones tab

Janie Jones By The Clash
Chorus:

|----------------------------||----------------------------||-9-------9-------9-------9--| x2|-9-------9-------9-------9--||-7-------7-------7-------7--||----------------------------|
‘Hes in love with the rock ‘ n roll woah……..’ Verse 1:
|---------------------------------||---------------------------------||---------------------------------||-9-9-9-9-9-9-9-9-9-9-9-9-9-9-9-9-||-9-9-9-9-9-9-9-9-9-9-9-9-9-9-9-9-||-7-7-7-7-7-7-7-7-7-7-7-7-7-7-7-7-|
‘Now he knows what he’s got to do……’
|---------------------------------||---------------------------------||-9-9-9-9-9-9-9-9-9-9-9-9-9-9-9-9-||-9-9-9-9-9-9-9-9-9-9-9-9-9-9-9-9-||-7-7-7-7-7-7-7-7-7-7-7-7-7-7-7-7-||---------------------------------|
‘You lucky lady!’
|---------------------------------||---------------------------------||---------------------------------||-7-7-7-7-7-7-7-7-7-7-7-7-7-7-7-7-||-7-7-7-7-7-7-7-7-7-7-7-7-7-7-7-7-||-5-5-5-5-5-5-5-5-5-5-5-5-5-5-5-5-|
‘Then he knows when the evening comes………’
|---------------------------------||---------------------------------||---------------------------------||-9-9-9-9-9-9-9-9-9-9-9-9-9-9-9-9-||-9-9-9-9-9-9-9-9-9-9-9-9-9-9-9-9-||-7-7-7-7-7-7-7-7-7-7-7-7-7-7-7-7-|
‘When his job is done he’ll be over…’
|----------------------------||----------------------------||-9-------9-------9-------9--| x2|-9-------9-------9-------9--||-7-------7-------7-------7--||----------------------------|
‘Hes in love with the rock ‘ n roll woah……’ Verse 2:
|---------------------------------||---------------------------------||---------------------------------||-9-9-9-9-9-9-9-9-9-9-9-9-9-9-9-9-||-9-9-9-9-9-9-9-9-9-9-9-9-9-9-9-9-||-7-7-7-7-7-7-7-7-7-7-7-7-7-7-7-7-|
‘And in the in-tray lots of work…’
|---------------------------------||---------------------------------||-9-9-9-9-9-9-9-9-9-9-9-9-9-9-9-9-||-9-9-9-9-9-9-9-9-9-9-9-9-9-9-9-9-||-7-7-7-7-7-7-7-7-7-7-7-7-7-7-7-7-||---------------------------------|
|---------------------------------||---------------------------------||---------------------------------||-7-7-7-7-7-7-7-7-7-7-7-7-7-7-7-7-||-7-7-7-7-7-7-7-7-7-7-7-7-7-7-7-7-||-5-5-5-5-5-5-5-5-5-5-5-5-5-5-5-5-|
‘And he’s just like everyone……’
|---------------------------------||---------------------------------||---------------------------------||-9-9-9-9-9-9-9-9-9-9-9-9-9-9-9-9-||-9-9-9-9-9-9-9-9-9-9-9-9-9-9-9-9-||-7-7-7-7-7-7-7-7-7-7-7-7-7-7-7-7-|
‘Fill er’ up , Jacko!’
|----------------------------||----------------------------||-9-------9-------9-------9--| x2|-9-------9-------9-------9--||-7-------7-------7-------7--||----------------------------|
‘Hes in love with the rock ‘ n roll woah……’ Verse 3:
|---------------------------------||---------------------------------||---------------------------------||-9-9-9-9-9-9-9-9-9-9-9-9-9-9-9-9-||-9-9-9-9-9-9-9-9-9-9-9-9-9-9-9-9-||-7-7-7-7-7-7-7-7-7-7-7-7-7-7-7-7-|
‘And in the invoice it don’t quite fit…’
|---------------------------------||---------------------------------||-9-9-9-9-9-9-9-9-9-9-9-9-9-9-9-9-||-9-9-9-9-9-9-9-9-9-9-9-9-9-9-9-9-||-7-7-7-7-7-7-7-7-7-7-7-7-7-7-7-7-||---------------------------------|
‘Except from the government!’
|---------------------------------||---------------------------------||---------------------------------||-7-7-7-7-7-7-7-7-7-7-7-7-7-7-7-7-||-7-7-7-7-7-7-7-7-7-7-7-7-7-7-7-7-||-5-5-5-5-5-5-5-5-5-5-5-5-5-5-5-5-|
‘this time he’s really gonna tell..’
|---------------------------------||---------------------------------||---------------------------------||-9-9-9-9-9-9-9-9-9-9-9-9-9-9-9-9-||-9-9-9-9-9-9-9-9-9-9-9-9-9-9-9-9-||-7-7-7-7-7-7-7-7-7-7-7-7-7-7-7-7-|
‘It’s pretty bad!’
|----------------------------||----------------------------||-9-------9-------9-------9--| x2|-9-------9-------9-------9--||-7-------7-------7-------7--||----------------------------|
‘Hes in love with the rock ‘ n roll woah……’ Coda:
|-----------------||-----------------||-6-6-6-6-6-6-6-6-||-6-6-6-6-6-6-6-6-||-4-4-4-4-4-4-4-4-||-----------------|
‘Noooooo!’
|-----------------|-----------------|-9-9-9-9-9-9-9-9-|-9-9-9-9-9-9-9-9-|-7-7-7-7-7-7-7-7-|-----------------
‘Nooooo!’
|-----------------||-----------------||-6-6-6-6-6-6-6-6-||-6-6-6-6-6-6-6-6-||-4-4-4-4-4-4-4-4-||-----------------|
‘Noooooo!’
|-----------------||-----------------||-----------------||-7-7-7-7-7-7-7-7-||-7-7-7-7-7-7-7-7-||-5-5-5-5-5-5-5-5-|
‘Let them know…………...’
|-----------------||-----------------||-----------------||-9-9-9-9-9-9-9-9-||-9-9-9-9-9-9-9-9-||-7-7-7-7-7-7-7-7-|
‘Let them know’
|------||------||-9----||-9----||-7----||------|
By Billy Sullivan (aged:12)
Tap to rate this tab
 
# A B C D E F G H I J K L M N O P Q R S T U V W X Y Z