Claude Sirois - Sautes Moutons tab

     Sautes moutons, arrangements pour guitare, par Claude Sirois

  Guitariste Québécois

  Guitare classique,  écrit en tablature par Steve Morin


             
|---------------------|---------------------|------------------------||-1p0----1p0----1p0---|--0------------------|-1p0----1p0----1p0----0-||-----2------2------2-|----2-0--------0-2---|-----2------2------2----||-2------2------2-----|---------2--2--------|-2------2------2--------||-0------0------0-----|---------------------|-0------0------0--------||---------------------|--0------0--0--------|----------------------0-|
|-----------|---------------------|-------------------|-----------------||-----------|-1p0----1p0----1p0---|--0----------------|-1p0---0---------||------0-2--|-----2------2------2-|----2-0------0-2---|-----2---2p0-2---||-2--2------|-2------2------2-----|--------2--2-------|-0-----0-----2---||-----------|-0------0------0-----|-------------------|-------------0---||-0--0------|---------------------|--0-----0--0-------|-1-----3---------|
|----------------||----------------||-----0-----2----||-2--------------| x2|-----------0----||-0---3----------|
|-0-----0---------|-0-----0---------|-----------------|----------------||---1-----1---3---|---0-----0---3---|-1-----1-----3---|-0-----0--------||-----2-----2---2-|-----0-----0---0-|---2-----2-----2-|---0--------0-2-||-------2---------|-------2---------|-----2-----2-----|-----2----2-----||-0-----------0---|-------------2---|-0-----0-----0---|----------------||-----------------|-0---------------|-----------------|-0-----0--------|
|-0------0---------|-0------0----------|---------------------||---1------1---3---|---0------0---3----|-1p0---0-------------||-----2------2---2-|-----0------0---0--|-----2---2p0--2------||--------2---------|--------2----------|-0-----0------2------||-0------------0---|--------------2----|--------------0------||------------------|-0-----------------|-1-----3-------------|
premiere fois 2ieme fois|----------------| |-------||----------------| |-1--3--||-----0-----2----| |-------||-2--------------| x2 |-------||-----------0----| |-------||-0---3----------| |-------|
|-0------------|-0------0------0-|--------------||---1----------|---1------1------|-3p0----------||-----0-----0--|-----0------0----|-----0-----0--||-------2------|-----------------|-------0------||-3-------3----|-----------------|--------------||--------------|-----------------|-3-------3----|
|------------------||-0-0-0--1-1--3-3--||-0-0-0--2-2--0-0--||-0-0-0--3-3--0-0--||------------------||-3-3-3--1----3----|
|-0-------------|--0------0------0-|-1-------------||---1-----------|----1------1------|---1-----------||-----0-----0---|------0------0----|-----2-----2---||-------2-------|------------------|-------3-------||-3-------3-----|------------------|---------3-----||---------------|------------------|-1-------------|
|-------------------||-1-1-1---3-3-3-3---||-2-2-2---0-0-0-0---||-3-3-3---0-0-0-0---||-------------------||---------3---------|
|-0------------|--0------0------0-|---------------||---1----------|----1------1------|--3p0----------||-----0-----0--|------0------0----|------1-----1--||-------2------|------------------|--------2------||-3-------3----|------------------|----------2----||--------------|------------------|--0------------|
|----------------|-----------------|--------------------||---0---1---3----|--1p0------------|---1-1-1-----3-3-3--||----------------|--2---2-2---2----|---0-0-0-----2-2-2--||-2---2---2---0--|----------2---0--|---2-2-2--0---------||----------------|--0--------------|-3------------------||----------------|-----------------|--------------------|
|----------------|-------------------||-1p0------------|---1-1-1----3-3-3--||-----2-2---2----|---0-0-0----2-2-2--||-2-------2---0--|---2-2-2--0--------||-0--------------|-3-----------------||----------------|-------------------|
|---------------------|---------------------|------------------------||-1p0----1p0----1p0---|--0------------------|-1p0----1p0----1p0----0-||-----2------2------2-|----2-0--------0-2---|-----2------2------2----||-2------2------2-----|---------2--2--------|-2------2------2--------||-0------0------0-----|---------------------|-0------0------0--------||---------------------|--0------0--0--------|----------------------0-|
|------------|---------------------|-----------------|---------------||------------|-1p0----1p0----1p0---|--0--------------|--1p0---0------||------0-2---|-----2------2------2-|----2-0------0-2-|------2---2p0--||-2--2-------|-2------2------2-----|--------2--2-----|--0-----0------||------------|-0------0------0-----|-----------------|---------------||-0--0-------|---------------------|--0-----0--0-----|--1-----3------|
|---------------------|-----------------------||-0h1p0---1-----------|--0h1p0---0------------||-------2---2---2---2-|--------2---2---2---2--||---------2-------2---|----------0-------0----| x2|-0-----------0-------|-----------------------||---------------------|--1------------1-------|
|-0h1p0---0------------|-3----1----0----------||-------3--------------|----------------3-----||------------2---2---2-|---2----2----2-----2--||---------2--------2---|------0---------0-----| x2|-0------------0-------|----------------------||----------------------|-1---------1----------|
|----------------------|---------------------||-0h1p0---0------------|-3----1----0---------||-------2----2---2---2-|---2----2----2-2-2---||---------2--------2---|------0--------0-0---| x2|-0------------0-------|---------------------||----------------------|-1---------1---------|
|--------------------------------||---------3------------3---------||-----4-----4------4-------4-----||---0---0--------0---0---0---0---||--------------------------------||-3------------3-----------------|
|-------------------------------||---------1------------1--------||-----2-----2------2-------2----||---0---0--------0---0---0---0--||-------------------------------||-1------------1----------------|
|------------a-0----||-0h1p0------m-0----||-------2----i-2----||------------p-2----||------------p-0----||-------------------|
steve,,, pompom@sympatico.ca
Tap to rate this tab
 
# A B C D E F G H I J K L M N O P Q R S T U V W X Y Z