Claude Sirois - Aux Portes Du Matin tab

aux portes du matin tab by claude sirois

 guitare classique


|----3----3----3----3----3----3----3----3-----3----||---3----3----3----3----3----3----3----3-----3-----||--2----2----2----2----2----2----2----2-----2------||---------------------0----0----0----0-----0-------||--------------------------------------------------||-3----3----3----3------------------------3--------|
|-----0-------------------3--3-------3-------------||-----0----------3--------3--3-------3-------------||---0---0h2------2------0---------0-----0----------||--------------0---0---------2-------2-------------||----------------------3--------3------------------||-0----------2-------------------------------------|
|-----0-------------------3--3-------3----------3-----3--||-----0----------3--------3--3-------3----------3----3---||---0---0h2------2------0---------0-----0----0------0----||--------------0---0---------2-------2----------2--2-----||----------------------3--------3----------3-------------||-0----------2-------------------------------------------|
|---------------------------------------------|----1--1-1---------------||----------------------0-------0-----------0--|---0------------0--------||-----0-0-0-----2--2-2--------0--0--------0---|--2------------0--2-2-0--||----2---------0-------------0-----0-----0----|--------------0----------||---2---------0-------------------------------|-3-----------------------||-0----------2-------------3---------3--------|-------------3-----------|
|--------------------|-------------------------------------||---------0-0--------|-------------------------------------||--2--2-2-----2-2----|---0--0-0----------------0----0---0--||-0---------------0--|--2---------4--4-5-7----2--2---2-----||--------------------|-3---------5-----------3----3---3----||--------------------|-------------------------------------|
|---------------------------------------------|----1--1-1---------------||----------------------0-------0-----------0--|---0------------0--------||-----0-0-0-----2--2-2--------0--0--------0---|--2------------0--2-2-0--||----2---------0-------------0-----0-----0----|--------------0----------||---2---------0-------------------------------|-3-----------------------||-0----------2-------------3---------3--------|-------------3-----------|
|--------------------|-------------------------------------||---------0-0--------|-------------------------------------||--2--2-2-----2-2----|---0--0-0----------------0----0---0--||-0---------------0--|--2---------4--4-5-7----2--2---2-----||--------------------|-3---------5-----------3----3---3----||--------------------|-------------------------------------|
|--------------------0---0-------0-----------------0----------------------||-----0-3-0---3--3-3-------3----3-------0-3-0--3--------------------------||----0-------2--------------0--0-------0---------2---2---0-----0-----0----||---0-------0----------------2--------0--------0-----------2-----2--------||------------------------3------------------------------3----3-----3------||-3----------------------------------3------------------------------------|
|--------------------0--0-------0------------------------------------||-----0-3-0---3--3-3------3----3-------0--0-0--0---------------------||----0-------2-------------0--0-------0-----------2-2-2----2--0-0-2--||---0-------0---------------2--------0---------0----------2----------||-----------------------3--------------------------------3-----------||-3--------------------------------3---------------------------------|
|---------------------------||------------------3--------||---0------0-------2--------||-----2------2-----0--------||-3-----3------3------------||---------------------------|
|-----0-------------------3--3-------3----------3-----3--||-----0----------3--------3--3-------3----------3----3---||---0---0h2------2------0---------0-----0----0------0----||--------------0---0---------2-------2----------2--2-----||----------------------3--------3----------3-------------||-0----------2-------------------------------------------|
|-----3-3-3\-----5--5-5\7--7-----7------7----------8--8-8-----7----------||----0----------3------------8--------8-----------8----------8---10-10-8-||---0----------2-----------0---0----0------------9---------0-------------||-------------4-------------------------------10-------------------------||------------------------------------------------------------------------||-0----------------------------------------------------------------------|
|-----5--5-5-7-7-5-5----------3-3-----2--2-3\5--3------3------3-----||----7---------------7\-------3------1------------3------3----------||---7-----------------------0-------2---------------0------0--------||-0--------------------------------0--------------------------------||-------------------------3---------------------3-------------------||-------------------------------------------------------------------|
|-----3-3-3\-----5--5-5\7--7-----7------7----------8--8-8-----7----------||----0----------3------------8--------8-----------8----------8---10-10-8-||---0----------2-----------0---0----0------------9---------0-------------||-------------4-------------------------------10-------------------------||------------------------------------------------------------------------||-0----------------------------------------------------------------------|
|-----5--5-5-7-7-5-5----------3-3-----2--2-3\5--3------3------3-----||----7---------------7\-------3------1------------3------3----------||---7-----------------------0-------2---------------0------0--------||-0--------------------------------0--------------------------------||-------------------------3---------------------3-------------------||-------------------------------------------------------------------|
|----7--10--7-----10--10-10-12---12--------12-----||---8------------7-----------------8------8-------||-0-------------7-------------------9----9--------||-------------0----------------------10-----------||-------------------------------------------------||--------------------------------8----------------|
|-----7--10--7------10---12---3------3-----||----8-------------7---7-------3----3------||-0---------------7-------------0--0-------||---------------0----------------2---------||-----------------------------3------------||------------------------------------------|
|----7--10--7-----10--10-10-12---12--------12-----||---8------------7-----------------8------8-------||-0-------------7-------------------9----9--------||-------------0----------------------10-----------||-------------------------------------------------||--------------------------------8----------------|
|-----7-7-7-------7----------------5--3-3-5--3----3---------||----8-----------7--10-10-10------5-----------5----5----7---||--0------------7----------------5-------------5----5---7---||-------------0---------------------------------------------||------------------------------3-------------3----------5---||-----------------------------------------------------------|
|-----0-------------------3--3-------3----------3-----3--||-----0----------3--------3--3-------3----------3----3---||---0---0h2------2------0---------0-----0----0------0----||--------------0---0---------2-------2----------2--2-----||----------------------3--------3----------3-------------||-0----------2-------------------------------------------|
|---------------------------------------------|----1--1-1---------------||----------------------0-------0-----------0--|---0------------0--------||-----0-0-0-----2--2-2--------0--0--------0---|--2------------0--2-2-0--||----2---------0-------------0-----0-----0----|--------------0----------||---2---------0-------------------------------|-3-----------------------||-0----------2-------------3---------3--------|-------------3-----------|
|--------------------|-------------------------------------||---------0-0--------|-------------------------------------||--2--2-2-----2-2----|---0--0-0----------------0----0---0--||-0---------------0--|--2---------4--4-5-7----2--2---2-----||--------------------|-3---------5-----------3----3---3----||--------------------|-------------------------------------|
|--------------------0---0-------0-----------------0----------------------||-----0-3-0---3--3-3-------3----3-------0-3-0--3--------------------------||----0-------2--------------0--0-------0---------2---2---0-----0-----0----||---0-------0----------------2--------0--------0-----------2-----2--------||------------------------3------------------------------3----3-----3------||-3----------------------------------3------------------------------------|
|--------------------0--0-------0------------------------------------||-----0-3-0---3--3-3------3----3-------0--0-0--0---------------------||----0-------2-------------0--0-------0-----------2-2-2----2--0-0-2--||---0-------0---------------2--------0---------0----------2----------||-----------------------3--------------------------------3-----------||-3--------------------------------3---------------------------------|
|---------------------------||------------------3--------||---0------0-------2--------||-----2------2-----0--------||-3-----3------3------------||---------------------------|
|-----0-------------------3--3-------3----------3-----3--||-----0----------3--------3--3-------3----------3----3---||---0---0h2------2------0---------0-----0----0------0----||--------------0---0---------2-------2----------2--2-----||----------------------3--------3----------3-------------||-0----------2-------------------------------------------|
|-------------------------------------------------||---------------------0------0p1h0----------------||-----0-0-0-----2-2-2-------0-------0-------------||----2---------0-----------0----------------------||---2---------0-----------------------------------||-0----------2-----------3-------------3----------|
steve,,,,,,,, pompom@sympatico.ca
Tap to rate this tab
 
# A B C D E F G H I J K L M N O P Q R S T U V W X Y Z