Claude Sirois - Ton Amour Est Trop Lourd tab

ton amour est trop lourd tab by claude sirois


    guitare classique


|-10-12-10--8-10-8--6-8-6--5-6-5--3-5-3---3------------||---------------------------------------6---6-5-6-5-3--||------------------------------------------------------||------------------------------------------------------||------------------------------------------------------||------------------------------------------------------|
|----------------------------------------------||-3-5-3---3------------------------------------||-------5---5-3-5-3-2-3-2---2------------------||-------------------------5---5-3-5-3-2-3-2-0--||----------------------------------------------||----------------------------------------------|
|-----------0-----------------0-------||---------3---3-------------3---3-----||-------2-------2---------2-------2---||-----0-----------------0-------------||---0-----------------3---------------||-0-----------------0-----------------|
|-----------0-----------------0-------||---------3---3-------------3---3-----||-------2-------2---------2-------2---||-----0-----------------0-------------||---1-----------------3---------------||-0-----------------0-----------------|
|-----------1p0---------------1p0-----||---------3-----3-----------3-----3---||-------2-----------------0-----------||-----0-----------------2-------------||---0-----------------3---------------||-0-----------------0-----------------|
|---------0h1p0-------------1---------||-------3-------3---------3-----------||-----0-----------------0-------------||---0-----------------2---------------||-1-----------------3-----------------||-------------------------------------|
|-5-5---5----------------------0---0-0-----0-------||---------------6------6------1--1-------1---1-----||---------7-7-----7----------0---------0-----------||-------------0-----0-------2--------2-----2-------||--------------------------3-----------------------||-----0--------------------------------------------|
|-------------------------------||-3---3-3-----3----3-----3------||---3-----3-----3----2----------||-----------3----------0--------||-1-----1-----------------------||------------------0------------|
|-5-5---5----------------------0---0-0-----0-------||---------------6------6------1--1-------1---1-----||---------7-7-----7----------0---------0-----------||-------------0-----0-------2--------2-----2-------||--------------------------3-----------------------||-----0--------------------------------------------|
|------------------------------------||-3---3-3-----3----3-----3-----------||---3-----3-----3----2---------2-----||-----------3----------0-------------||-1-----1----------------------------||------------------0---------------0-|
|------3\5/3------------------------------------------||-3-6--------6-3---5------5-----6-5--3-----3-----3----||---------------------5-----5----------3-----3-----3--||-----------------------5-----5----------3-----3------||------------------3------3----------1-----1----------||-----------------------------------------------------|
|------------------------3\5/3-------0-----0-----1p0----||-3-----3-----------3-6--------6-3-----1-----1----------||---2--------2---------------------------0-----0--------||-----0------------------------------------2------------||------------------------------------3------------------||-0--------------0--------------------------------------|
|-0------0-----0-----0-----0------------3-5-6-5-3----5-----5--||---3------3-----3-----2---------------3---------------5------||-----3------3-----------2-------2----3------------------6----||------------------------------------5------------5\7---------||-1------------------0----------------------------------------||-------------------------------------------------------------|
|-5-5---5----------------0---0-0----0---0-----0-----0----0-----0-||---------------6-----6--5--5--5---5-5------3-----3----------2---||---------7-7-----7------5-----5--5-------3-----3-----3----2-----||-------------0-----0--------------------------------------------||------------------------3-----3--------1-----1-----1----0-------||-----0----------------------------------------------------------|
|-------------------------------------------------------------------||-------------------------------------------------------------------||-2-2---2-----------------------------------------------------------||---------0-0---3p0---3--2---2-2-----2-----0---0-0----0-----0-----0-||--------------------------3-----3-----0h1---1-----1----1\5---5-----||-----0-------0-----0----0-----0---0-------0-----0---0----------0---|
|-------------------------------------------------------------------||-------------------------------------------------------------------||-2-2---2-----------------------------------------------------------||---------0-0---3p0---3--2---2-2-----2-----0---0-0----0-----0-----0-||--------------------------3-----3-----0h1---1-----1----1\5---5-----||-----0-------0-----0----0-----0---0-------0-----0---0----------0---|
|-----------0-----------------0-------||---------3---3-------------3---3-----||-------2-------2---------2-------2---||-----0-----------------0-------------||---0-----------------3---------------||-0-----------------0-----------------|
|-----------0-----------------0-------||---------3---3-------------3---3-----||-------2-------2---------2-------2---||-----0-----------------0-------------||---1-----------------3---------------||-0-----------------0-----------------|
|-----------1p0---------------1p0-----||---------3-----3-----------3-----3---||-------2-----------------0-----------||-----0-----------------2-------------||---0-----------------3---------------||-0-----------------0-----------------|
|---------0h1p0-------------1---------||-------3-------3---------3-----------||-----0-----------------0-------------||---0-----------------2---------------||-1-----------------3-----------------||-------------------------------------|
|-1p0-----------0-------------0-------||-----3-------1--------------3--------||-----------0---------------2---------||---------2----------------0----------||-------3-----------------0-----------||------------------------0------------|
steve,,,, pompom@sympatico.ca
Tap to rate this tab
 
# A B C D E F G H I J K L M N O P Q R S T U V W X Y Z