Claude Sirois - Fait Du Feu Dans La Chemine tab

fait du feu dans la cheminée tab by claude sirois


    guitar classique    veuillez accorder votre MI bourdon en RE bourdon

|--------0----2---2--3--2---3--2-----2--3--2---3---2--------------------||---3------3----3---------3------3-----------3---3---3---3------3-------||-----2----------------------------2-------------------2------2---2-----||--------------------------------------------------------------------0--||-----------------------------------------------------------------------||-------------0---------0------0-----------0-------0--------------------|
|-----------------0--2------2------2-----2-------||---3-3-3---3-3-3------3------3------3-----3-----||--2-------2-------------2------2------------2---||-0-------0-----------------0------------0-------||------------------------------------------------||--------------------0-------------0-------------|
|-----------------0--0------0------0----0--------||---3-3-3---3-3-3------2------2------2----2------||--2-------2-------------2------2-----------2----||-0-------0-----------------0-----------0--------||--------------------0-------------0-------------||------------------------------------------------|
|--------------------0------0-----0----0---------||---2-2-2---2-2-2-3----2------2-----2----2-------||--2-------2-------------2------2----------2-----||-2-------2-----------------0----------0---------||--------------------0------------0--------------||------------------------------------------------|
|------------------------------------------------||---2-2-2---2-2-2-3--3------3------3------3------||--2-------2-----------2------2------2---2-------||-2-------2--------------0------0-------0--------||------------------------------------------------||--------------------0---------------------------|
|----2-2-2---2-2-2-3\5--5------5------5-------5--||---3-------3-------------7------7------7----7---||--2-------2----------------7------7--------7----||-0---------------------0------------------0-----||------------------------------------------------||------------------------------------------------|
|------------------------------------------------||---7-7-7---7-7-7-8--8------8-----8-------8------||--7-------7-----------9------9-----9----9-------||-0-------0--------------9------9-------9--------||--------------------7-----------------7---------||------------------------------------------------|
|------0-0-2-3------3------3--------3----||-----0--------2------2------2-----2-----||----0-----------2------2---------2------||---0------------------------------------||--2---------0------------------0--------||-2--------------------------------------|
|----0-0-0---0-0-0----2-----3---2-0---0h2------||---2-------2------3----3-----3-----3-----3----||--2-------2--------------2-----------------2--||-2-------------------0------------------------||----------------------------------------------||----------------------------------------------|
|--------0----2---2--3--2---3--2-----2--3--2------------||---3------3----3---------3------3-----------3---3------||-----2----------------------------2-----------2--------||-------------------------------------------------------||-------------------------------------------------------||-------------0---------0------0-----------0------------|
|-0--------------------------------0---0-2-0---2-0-----0-2-0-------||---2----------------------2---3-----2-------2-----2---------2---2-||-----2---2---2-------2------2---2-------------------2---------2---||-------2---2---2---2---2------------------------------------------||-0---------------0----------------0-------0-----0---------0-------||------------------------------------------------------------------|
|--------------------------||-3-----3------3-----------||---2--------2---2---2-----||-0---0------------4-------||--------------------------||--------------------------|
|--------0----2---2--3--2---3--2-----2--3--2------------||---3------3----3---------3------3-----------3---3------||-----2----------------------------2-----------2--------||-------------------------------------------------------||-------------------------------------------------------||-------------0---------0------0-----------0------------|
|-0--------------------------------0---0-2-0---2-0-----0-2-0-------||---2----------------------2---3-----2-------2-----2---------2---2-||-----2---2---2-------2------2---2-------------------2---------2---||-------2---2---2---2---2------------------------------------------||-0---------------0----------------0-------0-----0---------0-------||------------------------------------------------------------------|
|--------------------------||-3-----3------3-----------||---2--------2---2---------||-0---0------------0-------||--------------------------||--------------------------|
|-----------------0--2------2------2-----2-------||---3-3-3---3-3-3------3------3------3-----3-----||--2-------2-------------2------2------------2---||-0-------0-----------------0------------0-------||------------------------------------------------||--------------------0-------------0-------------|
|-----------------0--0------0------0----0--------||---3-3-3---3-3-3------2------2------2----2------||--2-------2-------------2------2-----------2----||-0-------0-----------------0-----------0--------||--------------------0-------------0-------------||------------------------------------------------|
|--------------------0------0-----0----0---------||---2-2-2---2-2-2-3----2------2-----2----2-------||--2-------2-------------2------2----------2-----||-2-------2-----------------0----------0---------||--------------------0------------0--------------||------------------------------------------------|
|------------------------------------------------||---2-2-2---2-2-2-3--3------3------3------3------||--2-------2-----------2------2------2---2-------||-2-------2--------------0------0-------0--------||------------------------------------------------||--------------------0---------------------------|
|----2-2-2---2-2-2-3\5--5------5------5-------5--||---3-------3-------------7------7------7----7---||--2-------2----------------7------7--------7----||-0---------------------0------------------0-----||------------------------------------------------||------------------------------------------------|
|------------------------------------------------||---7-7-7---7-7-7-8--8------8-----8-------8------||--7-------7-----------9------9-----9----9-------||-0-------0--------------9------9-------9--------||--------------------7-----------------7---------||------------------------------------------------|
|------0-0-2-3------3------3--------3----||-----0--------2------2------2-----2-----||----0-----------2------2---------2------||---0------------------------------------||--2---------0------------------0--------||-2--------------------------------------|
|----0-0-0---0-0-0----2-----3---2-0---0h2------||---2-------2------3----3-----3-----3-----3----||--2-------2--------------2-----------------2--||-2-------------------0------------------------||----------------------------------------------||----------------------------------------------|
|--------0----2---2--3--2---3--2-----2--3--2------------||---3------3----3---------3------3-----------3---3------||-----2----------------------------2-----------2--------||-------------------------------------------------------||-------------------------------------------------------||-------------0---------0------0-----------0------------|
|-0--------------------------------0---0-2-0---2-0-----0-2-0-------||---2----------------------2---3-----2-------2-----2---------2---2-||-----2---2---2-------2------2---2-------------------2---------2---||-------2---2---2---2---2------------------------------------------||-0---------------0----------------0-------0-----0---------0-------||------------------------------------------------------------------|
|--------------------------||-3-----3------3-----------||---2--------2---2---2-----||-0---0------------4-------||--------------------------||--------------------------|
|--------0----2---2--3--2---3--2-----2--3--2------------||---3------3----3---------3------3-----------3---3------||-----2----------------------------2-----------2--------||-------------------------------------------------------||-------------------------------------------------------||-------------0---------0------0-----------0------------|
|-0--------------------------------0---0-2-0---2-0-----0-2-0-------||---2----------------------2---3-----2-------2-----2---------2---2-||-----2---2---2-------2------2---2-------------------2---------2---||-------2---2---2---2---2------------------------------------------||-0---------------0----------------0-------0-----0---------0-------||------------------------------------------------------------------|
|--------------------------||-3-----3------3-----------||---2--------2---2---2-----||-0---0------------4-------||--------------------------||--------------------------|
|-2\--3----5---5-7--5---7--5-----5--7--5--------||--3\5-5\7---7--------7------7-----------7---7--||------------------------------7-----------7----||----------0--------0------0-----------0--------||-----------------------------------------------||-----------------------------------------------|
|-3------3-3-----2-2-----0-0---------0---2-----3----3-5--3---5--3------||---5----5-5-----3-3-----2-2-----------2---2-----2---------2------2----||-----4--4-4-----2-2-----2-2----------------------------------------2--||----------------------------------------------------------------------||-0----------0--------0------------0-----------0---------0------0------||----------------------------------------------------------------------|
|-3-5--3-----------------3----2--0---------5-----||--------2---2----3----------------3------3------||----------2--------2------2---------2---2-------||---------------0-----0-----------------0--------||------0-----------------------------------------||------------------------------------------------|
steve,,,,,,,,, pompom@sympatico.ca
Tap to rate this tab
 
# A B C D E F G H I J K L M N O P Q R S T U V W X Y Z