Clint Mansell – Dead Reckoning tab

Dead Reckoning - Clint Mansell

Guitar 1 D A D G B e  Clean w/Reverb
Guitar 2 D A D G B e  Distorted w/Delay Palm Muted
Guitar 3 D A D G B e  Slightly Distored w/Reverb
Guitar 4 D A D G B e  Distorted w/Reverb and Delay
Guitar 5 D A D G B e  Distorted w/Reverb and Delay
Guitar 6 D A D G B e  Distorted

Hi, i decided to tab this song out after awhile because its pretty catchy and pretty 
to play.
I know the tab may look crazy but its every part tabbed out in the same amount its 
plus i've also added times in so you don't get lost.
I've tabbed this out with each guitar in the song being represented by a single 
guitar.
Don't be alarmed as you obviously don't need 6 guitars to play this song.
I suggest that you play the song using either 3 or 2 guitars.

Guitar 1 plays the clean intro parts, through the main part at 1:16 and the outro at 2:44.
Guitar 2 can play Guitar 2's part, Guitar 4 and Guitar 5, though i believe Guitar 2 isnt 
a guitar it maybe strings but i thought i'd tab that too
Guitar 3 can play GUitar 3's part and Guitar 6 part

Alternatively if you want to play on two guitars get rid of Guitar part 2 and have the following;
Guitar 1 playing parts 1 and 6
Guitar 2 playing parts 3,4 and 5

Overall it's an easy song to learn and play and it sounds great.

0:02|--------------------------------------------------||--------------------------------------------------||-6~----6~----6~----6~-----------------------------||-8~----8~----8~----8~-----------13--11--10--8-----||-8~----8~----8~----8~---11--13--------------------||-8~----8~----8~----8~-----------------------------| Guitar 1
|--------------------------------------------------||--------------------------------------------------||-6~----6~----6~----6~-----------------------------||-8~----8~----8~----8~-----------13--11--10--8-----||-8~----8~----8~----8~---11--13--------------------||-8~----8~----8~----8~-----------------------------| Guitar 1
0:17|------------------------------------------------------||------------------------------------------------------||15-15-15-15-15-15-15-15-15151515-15-15-15-15-15-15-15-||------------------------------------------------------||------------------------------------------------------||------------------------------------------------------| Guitar 2
|--------------------------------------------------||--------------------------------------------------||-6~----6~----6~----6~-----------------------------||-8~----8~----8~----8~-----------13--11--10--8-----||-8~----8~----8~----8~---11--13--------------------||-8~----8~----8~----8~-----------------------------| Guitar 1
|-----------------------------------------------||-----------------------------------------------||15-15-15-15-15-15-15-15-15-15-15-15-15-15-15-15||-----------------------------------------------||-----------------------------------------------||-----------------------------------------------| Guitar 2
|--------------------------------------------------||--------------------------------------------------||-6~----6~----6~----6~-----------------------------||-8~----8~----8~----8~-----------13--11--10--8-----||-8~----8~----8~----8~---11--13--------------------||-8~----8~----8~----8~-----------------------------| Guitar 1
|------------------------------------------------||------------------------------------------------||15-15-15-15-15-15-15-15-15-15-15-15-15-15-15-15-||------------------------------------------------||------------------------------------------------||------------------------------------------------| Guitar 2
|--------------------------------------------------||--------------------------------------------------||-6~----6~----6~----6~-----------------------------||-8~----8~----8~----8~-----------13--11--10--8-----||-8~----8~----8~----8~---11--13--------------------||-8~----8~----8~----8~-----------------------------| Guitar 1
|-----------------------------------------------||-----------------------------------------------||15-15-15-15-15-15-15-15-15-15-15-15-15-15-15-15||-----------------------------------------------||-----------------------------------------------||-----------------------------------------------| Guitar 2
1:01|---------------------------------------------------------------------------------||---------------------------------------------------------------------------------||---------------------------------------------------------------------------------||---------------------------------------------------------------------------------||13--13--13-13-13-15-16--13--13--13-13-15-16--13--13--13-13-15-16--16-16-16-16-16-||---------------------------------------------------------------------------------|
-----------------------|-----------------------|-----------------------|-----------------------|16-16-16-16-16-16-15-13|-----------------------|
Guitar 3
1:16|--------------------------------------------------------------------------------------||--------------------------------------------------------------------------------------||18-15-15-15-15-18-15-18-15-15-15-15-18-15-18-15-15-15-15-18-15-18-15-15-18-15-15-18-15||--------------------------------------------------------------------------------------||--------------------------------------------------------------------------------------||--------------------------------------------------------------------------------------| Guitar 4
|--------------------------------------------------------------------------------------||--------------------------------------------------------------------------------------||-6~---------------------------------------6~------------------------------------------||-8~---------------------------------------8~------------------------------------------||-8~---------------------------------------8~------------------------------------------||-8~---------------------------------------8~------------------------------------------| Guitar 1
|--------------------------------------------------------------------------------------||--------------------------------------------------------------------------------------||18-15-15-15-15-18-15-18-15-15-15-15-18-15-18-15-15-15-15-18-15-18-15-15-18-15-15-18-15||--------------------------------------------------------------------------------------||--------------------------------------------------------------------------------------||--------------------------------------------------------------------------------------| Guitar 4
|--------------------------------------------------------------------------------------||--------------------------------------------------------------------------------------||-6~---------------------------------------6~------------------------------------------||-8~---------------------------------------8~------------------------13--11--10--8-----||-8~---------------------------------------8~----------------11--13--------------------||-8~---------------------------------------8~------------------------------------------| Guitar 1
1:30|--------------------------------------------------------------------------------------||--------------------------------------------------------------------------------------||18-15-15-15-15-18-15-18-15-15-15-15-18-15-18-15-15-15-15-18-15-18-15-15-18-15-15-18-15||--------------------------------------------------------------------------------------||--------------------------------------------------------------------------------------||--------------------------------------------------------------------------------------| Guitar 4
|--------------------------------------------------------------------------------------||--------------------------------------------------------------------------------------||-6~---------------------------------------6~------------------------------------------||-8~---------------------------------------8~------------------------------------------||-8~---------------------------------------8~------------------------------------------||-8~---------------------------------------8~------------------------------------------| Guitar 1
|--------------------------------------------------------------------------------------||--------------------------------------------------------------------------------------||18-15-15-15-15-18-15-18-15-15-15-15-18-15-18-15-15-15-15-18-15-18-15-15-18-15-15-18-15||--------------------------------------------------------------------------------------||--------------------------------------------------------------------------------------||--------------------------------------------------------------------------------------| Guitar 4
|--------------------------------------------------------------------------------------||--------------------------------------------------------------------------------------||-6~---------------------------------------6~------------------------------------------||-8~---------------------------------------8~------------------------13--11--10--8-----||-8~---------------------------------------8~----------------11--13--------------------||-8~---------------------------------------8~------------------------------------------| Guitar 1
1:45|--------------------------------------------------------------------------------------||--------------------------------------------------------------------------------------||18-15-15-15-15-18-15-18-15-15-15-15-18-15-18-15-15-15-15-18-15-18-15-15-18-15-15-18-15||--------------------------------------------------------------------------------------||--------------------------------------------------------------------------------------||--------------------------------------------------------------------------------------| Guitar 4
|--------------------------------------------------------------------------------------||--------------------------------------------------------------------------------------||-6~---------------------------------------6~------------------------------------------||-8~---------------------------------------8~------------------------------------------||-8~---------------------------------------8~------------------------------------------||-8~---------------------------------------8~------------------------------------------| Guitar 1
|--------------------------------------------------------------------------------------||--------------------------------------------------------------------------------------||18-15-15-15-15-18-15-18-15-15-15-15-18-15-18-15-15-15-15-18-15-18-15-15-18-15-15-18-15||--------------------------------------------------------------------------------------||--------------------------------------------------------------------------------------||--------------------------------------------------------------------------------------| Guitar 4
|--------------------------------------------------------------------------------------||--------------------------------------------------------------------------------------||-6~---------------------------------------6~------------------------------------------||-8~---------------------------------------8~------------------------13--11--10--8-----||-8~---------------------------------------8~----------------11--13--------------------||-8~---------------------------------------8~------------------------------------------| Guitar 1
2:00|----------------------------------------------------------------||----------------------------------------------------------------||11~--------------------------13~--------------------------------||----------------------------------------------------------------||----------------------------------------------------------------||----------------------------------------------------------------| Guitar 5
|--------------------------------------------------------||--------------------------------------------------------||--------------------------------------------------------||--------------------------------------------------------||--------------------------------------------------------||8-8-8-8-8-8-8-8-8-8-8-10-11--8-8-8-8-8-8-8-8-8-8-8-10-11| Guitar 6
|----------------------------------------------------------------||----------------------------------------------------------------||15~--------------------------17~--------------------------------||----------------------------------------------------------------||----------------------------------------------------------------||----------------------------------------------------------------| Guitar 5
|------------------------------------------------------------------||------------------------------------------------------------------||------------------------------------------------------------------||------------------------------------------------------------------||------------------------------------------------------------------||8-8-8-8-8-8-8-8-8-8-8-10-11--11-11-11-11-11-11-11-11-11-11-11-10-8| Guitar 6
2:14|13~--------------------------16~---------------------------------||-----------------------------------------------------------------||-----------------------------------------------------------------||-----------------------------------------------------------------||-----------------------------------------------------------------||-----------------------------------------------------------------| Guitar 5
|--------------------------------------------------------||--------------------------------------------------------||--------------------------------------------------------||--------------------------------------------------------||--------------------------------------------------------||8-8-8-8-8-8-8-8-8-8-8-10-11--8-8-8-8-8-8-8-8-8-8-8-10-11| Guitar 6
|18~--------------------------20~---------------------------------||-----------------------------------------------------------------||-----------------------------------------------------------------||-----------------------------------------------------------------||-----------------------------------------------------------------||-----------------------------------------------------------------| Guitar 5
|------------------------------------------------------------------||------------------------------------------------------------------||------------------------------------------------------------------||------------------------------------------------------------------||------------------------------------------------------------------||8-8-8-8-8-8-8-8-8-8-8-10-11--11-11-11-11-11-11-11-11-11-11-11-10-8| Guitar 6
2:29|--------------------------------------------------------------------------------------||--------------------------------------------------------------------------------------||18-15-15-15-15-18-15-18-15-15-15-15-18-15-18-15-15-15-15-18-15-18-15-15-18-15-15-18-15||--------------------------------------------------------------------------------------||--------------------------------------------------------------------------------------||--------------------------------------------------------------------------------------| Guitar 4
|--------------------------------------------------------------------------------------||--------------------------------------------------------------------------------------||18-15-15-15-15-18-15-18-15-15-15-15-18-15-18-15-15-15-15-18-15-18-15-15-18-15-15-18-15||--------------------------------------------------------------------------------------||--------------------------------------------------------------------------------------||--------------------------------------------------------------------------------------| Guitar 4
2:44|---------------------------||---------------------------||---------------------------||----------13--11--10--8----||--11--13-------------------||---------------------------| Guitar 1
Please rate this tab:
x1.0