Clutch – Swamp Boot Upside Down tab

Song: Swamp Boot Upside Down
Artist: Clutch
Album: Jam Room [Bonus Tracks]
Tabbed By: Mason Bartlett

Intro-------------------------------------|--3--1---------------3-1-------------|--------2~-1-2-----------2-2h(0)-2---|---------------0-------------------0-|-------------------------------------|-------------------------------------|x2
----------------------|----------------------|----------------------|-5-4-3--------5-4-3---|-5-4-3--------5-4-3---|-3-2-1--------3-2-1---|
-------------------------------------|--3--1---------------3-1-------------|--------2~-1-2-----------2-2h(0)-2---|---------------0-------------------0-|-------------------------------------|-------------------------------------|
--------------------------------|--------------------------------|--------------------------------|-7-5-7-10-7-5-7-5-7-10---5-4-3--|-7-5-7-10-7-5-7-5-7-10---5-4-3--|-5-3-5-8--5-3-5-3-5-8----3-2-1--|
-------------------|-------------------|-------------------|-7-6-5~~-5-4~~-----|-7-6-5~~-5-4~~-----|-5-4-3~~-3-2~~-----|
--------------------------------|--------------------------------|--------------------------------|-7-5-7-10-7-5-7-5-7-10---5-4-3--|-7-5-7-10-7-5-7-5-7-10---5-4-3--|-5-3-5-8--5-3-5-3-5-8----3-2-1--|
-------------------|-------------------|-------------------|-7-6-5~~-5-4~~-----|-7-6-5~~-5-4~~-----|-5-4-3~~-3-2~~-----|
-------------------------------------|--3--1---------------3-1-------------|--------2~-1-2-----------2-2h(0)-2---|---------------0-------------------0-|-------------------------------------|-------------------------------------|x2
----------------------|----------------------|----------------------|-5-4-3--------5-4-3---|-5-4-3--------5-4-3---|-3-2-1--------3-2-1---|
-------------------------------------|--3--1---------------3-1-------------|--------2~-1-2-----------2-2h(0)-2---|---------------0-------------------0-|-------------------------------------|-------------------------------------|
--------------------------------|--------------------------------|--------------------------------|-7-5-7-10-7-5-7-5-7-10---5-4-3--|-7-5-7-10-7-5-7-5-7-10---5-4-3--|-5-3-5-8--5-3-5-3-5-8----3-2-1--|
--------|--------|--------|--7~~---|--7~~---|--5~~---|
Please rate this tab:
x1.0