Clutch - 7 Jam tab

Song: 7 Jam
Artist: Clutch
Album: Clutch
Tabbed By: Mason Bartlett
Tuning: Standard

Intro: After drum intro Beginning the bass lick-----------|-----------|-----------|-0---------|-----------|-----------|
Bass entersAnd then guitar-------------------------------------------|-------------------------------------------|--------10---------10h12-10-12b------10----|---10h12---12-10h12-------------10h12---12-|-------------------------------------------|-------------------------------------------|
----------------------------|----------------------------|---10h12b------10h12-10-12b-|---------10h12--------------|----------------------------|----------------------------|
---------------------- ---------|---------------------- ---------|---------------------- ---------|------3-------3h5-3--- ---------|---3h5--5--3h5-----5-- 9 times ---3h5---|---------------------- Then ---------|
-------------------------------------------|-------------------------------------------|--------10---------10h12-10-12b------10----|---10h12---12-10h12-------------10h12---12-|-------------------------------------------|-------------------------------------------|
----------------------------|----------------------------|---10h12b------10h12-10-12b-|---------10h12--------------|----------------------------|----------------------------|
--------------------------------------------------------|--------------------------------------------------------|--------------------------------------------------------|------3-------3h5-3-------------------------------------|---3h5--5--3h5-----5------------------------------------| 8 times--------------------------------------------------------|----------------------------------------- ------|----------------------------------------- ------|----------------------------------------- ------|---5/77-7----3---3-----5/77-7----3---3h5- ------|---3/55-5-3h5--5---5---3/55-5-3h5--5----- -3h5--|----------------------------------------- 4 times ------|
----------------------------------------------------------|----------------------------------------------------------|---10h12-------10h12-10-12b10-12b-------10h12-10-12b10-12-|---------10h12--------------------10h12-------------------|----------------------------------------------------------|----------------------------------------------------------|
---------------------------------------------------|---------------------------------------------------|--------10h12b-10-12b10-12b------10h12-10-12b------|---10h12--------------------10h12------------10h12-|---------------------------------------------------|---------------------------------------------------|
---------------------- --------------------|---------------------- --------------------|---------------------- --------------------|------3-------3h5-3--- ----3------3h5-3-5--|b---3h5--5--3h5-----5-- 9 times -3h5--5-3h5---------|---------------------- Then --------------------|
--------------------------------------------------------|--------------------------------------------------------|--------10---------10h12-10-12b------10h12-----10-------|---10h12---12-10h12-------------10h12-----10h12---12-12-|--------------------------------------------------------|--------------------------------------------------------|
---10~~~~~~~~~~------------------------------|---------------------10---------10h12-10-12--|b----------------10h12---12-10h12-------------|---------------------------------------------|---------------------------------------------|---------------------------------------------|
--------------------------------------------|--------------------------------------------|--------10---------10h12-10-12b-12~~~~~~~~~-|---10h12---12-10h12-------------------------|--------------------------------------------|--------------------------------------------|
-----------------------------------|-----------------------------------|-----------------------------------|------3-------3h5-3------------3---|---3h5--5--3h5-----5--3h5--3h5---5-|-----------------------------------|
----------------------------------------|----------------------------------------|----------------------------------------|------3-------3h5-3-------3-------3-----|---3h5--5--3h5-----5--3h5---5-3h5---5-5-|----------------------------------------|
-----------------------------------------|-----------------------------------------|-----------------------------------------|-------------------------3-------3h5-3---|---3h5-3h5-3h5-3h5-5-3h5---5~3h5-------5-|-----------------------------------------|
------------------------|------------------------|------------------------|-------3-------3h5-3-5--|b---3h5---5-3h5----------|------------------------|
---------------------- ---------|---------------------- ---------|---------------------- ---------|------3-------3h5-3--- ---------|---3h5--5--3h5-----5-- 5 times ---3h5---|---------------------- Then ---------|
----------------------------|----------------------------|---10h12b------10h12-10-12b-|---------10h12--------------|----------------------------|----------------------------|
----------------------|----------------------|----------------------|------3-------3h5-3---|---3h5--5--3h5-----5--| 8 times----------------------|
-----------------------------------------|-----------------------------------------|-----------------------------------------|---5/77-7----3---3-----5/77-7----3---3h5-|---3/55-5-3h5--5---5---3/55-5-3h5--5-----|-----------------------------------------| 4 times
Tap to rate this tab
 
# A B C D E F G H I J K L M N O P Q R S T U V W X Y Z