Coal Chamber – Not Living tab

WWW.METALTABS.COM

          URL: www.metaltabs.com
	EMAIL: webmaster@metaltabs.com

 ----------------------------------------------------------------------------------------------

	     SONG: Not Living
	     BAND: Coal Chamber
	    ALBUM: Chamber Music
   TRANSCRIBED BY: Josh Brown (joshbrown311@hotmail.com)
	     DATE: Unknown

 ----------------------------------------------------------------------------------------------

	TUNING: tune your guitar down as follows (A,E,A,D,G,B)


     () = palm mute


     RIFF 1:

|------------------------------------------------| |-7--6--7--6--7--6--7--6--7--6--7--6--7--6--7--6-| |------------------------------------------------| |------------------------------------------------| |------------------------------------------------| |------------------------------------------------|
RIFF 2:
|---------------------------------------------------------| |---------------------------------------------------------| |---------------------------------------------------------| |-4--5-5-5--4-4-4--5-5-5--4-4-4--5-5-5--4-4-4--5-5-5--4-4-| |-4--5-5-5--4-4-4--5-5-5--4-4-4--5-5-5--4-4-4--5-5-5--4-4-| |-4--5-5-5--4-4-4--5-5-5--4-4-4--5-5-5--4-4-4--5-5-5--4-4-|
RIFF 3:
|-------------------------------| |-------------------------------| |-4---5---4---5---4---5---4---5-| |-------------------------------| |-------------------------------| |-------------------------------|
RIFF 4:
|-------------------------------------------------------------| |-------------------------------------------------------------| |-(4-4-4-4-4-4-4-4-4-4-4-4-5-4-4-4-4-4-4-5-4-4-5-4-4-5-4-5-5)-| |-------------------------------------------------------------| |-------------------------------------------------------------| |-------------------------------------------------------------|
RIFF 5:
|--------------------------| |--------------------------| |--------------------------| |-4-3-3--4-3-3--4-3-3--3-4-| |-4-3-3--4-3-3--4-3-3--3-4-| |-4-3-3--4-3-3--4-3-3--3-4-|
RIFF 6:
|---------------| |---------------| |---------------| |-4-4-4-3-3-3-2-| |-4-4-4-3-3-3-2-| |-4-4-4-3-3-3-2-|
RIFF 7:
|-------------------------------------------------------------| |-----------------------------------------------7-7-7-7-7-7-7-| |-(4-4-4-4-4-4-4-4-4-4-4-4-5-4-4-4-4-4-4-5-4-4)-7-7-7-7-7-7-7-| |-----------------------------------------------5-5-5-5-5-5-5-| |-------------------------------------------------------------| |-------------------------------------------------------------|
Please rate this tab:
x1.0