Cold - She Said tab

#----------------------------------PLEASE NOTE---------------------------This file is 
own work and represents their interpretation of the
song. You may only use this file for private study, scholarship, or research.
#---------------------------------------------------------------------------#

No One by Cold

C F Bb Eb G C


Intro - Piano

|------------------|-----------------|-------------|-----19--17-15-14---||--15-17-15--------|-15-17-15--------|-15-17-15----|-17--------------15-||-----------16-----|----------16-----|----------16-|--------------------||---------------17-|--------------17-|-------------|--------------------||------------------|-----------------|-------------|--------------------||------------------|-----------------|-------------|--------------------|
|------------------|-----------------|-------------|-----19--17--15----||--15-17-15--------|-15-17-15--------|-15-17-15----|-17----------------||-----------16-----|----------16-----|----------16-|-------------------||---------------17-|--------------17-|-------------|-------------------||------------------|-----------------|-------------|-------------------||------------------|-----------------|-------------|-------------------|
Verse 1
|-----------|-----------|-----------|-----------||-----------|-----------|-----------|-----------||-----------|-----------|-----------|-----------||-----------|-----------|-----------|-----------|Use Delay & Chorus|--2--------|--3--------|--3--------|--2--------||-----------|-----------|-----------|-----------| x4
|-----------|-----------|-----------|-----------||-----------|-----------|-----------|-----------||----4---4--|-----5--5--|--5---5----|----4---4--||-----------|-----------|-----------|-----------||--2---2----|-2-3---3-3-|-3---3---3-|--2---2----||-----------|-----------|-----------|-----------| x2
Verse 2
Gtr 1|-----------|-----------|-----------|-----------||-----------|-----------|-----------|-----------||-----------|-----------|-----------|-----------||-----------|-----------|-----------|-----------||--2--------|--3--------|--3--------|--2--------||-----------|-----------|-----------|-----------| x2
|-----------|-----------|-----------|-----------||-----------|-----------|-----------|-----------||----4---4--|-----5--5--|--5---5----|----4---4--||-----------|-----------|-----------|-----------||--2---2----|-2-3---3-3-|-3---3---3-|--2---2----||-----------|-----------|-----------|-----------| x2
Gtr 2 pm...........................................|-----------|-----------|-----------|-----------||-----------|-----------|-----------|-----------||-----------|-----------|-----------|-----------||--4-4-4-4--|--5-5-5-5--|--5-5-5-5--|--4-4-4-4--||--2-2-2-2--|--3-3-3-3--|--3-3-3-3--|--2-2-2-2--||-----------|-----------|-----------|-----------| x4
Bridge
|------------|------------|------------|--------------------||------------|------------|------------|--------------------||--/7-9-7----|--/7-9-7----|--/7-9-7----|-5-5-5-5/7-7-7-7----||---------9--|---------9--|---------9--|-----------------9--||------------|------------|------------|--------------------||------------|------------|------------|--------------------| x2
Other guitar plays chorus /w Phaser x 4
|------------------------(19)-------------||--feedback-pitch-G-----------------------||-----------------------------------------||-----------------------------------------||-----------------------------------------||-----------------------------------------|
throw this in a couple times on last 2 chorusís then some pick scrapes Chorus
|-------------------------------------||-------------------------------------||--7--7-------------------------------||--7--7--x-5/7-7-7-7-7-8-8-8-5---5-5--||--5--5--x-5/7-7-7-7-7-8-8-8-5---5-5--||--------x-3/5-5-5-5-5-6-6-6-3---3-3--|
|-------------------------------------||-------------------------------------||--7--7-------------------------------||--7--7--x-5/7-7-7-7-7-8-8-8-5---5-5--||--5--5--x-5/7-7-7-7-7-8-8-8-5---5-5--||--------x-3/5-5-5-5-5-6-6-6-3---3-3--|
|-------------------------------------||-------------------------------------||--7--7-------------------------------||--7--7--x-5/7-7-7-7-7-8-8-8-5---5-5--||--5--5--x-5/7-7-7-7-7-8-8-8-5---5-5--||--------x-3/5-5-5-5-5-6-6-6-3---3-3--|
|-------------------------------------||-------------------------------------||--7--7-------------------------------||--7--7--x-5/7-7-7-7-7-8-8-8-5---5-5--||--5--5--x-5/7-7-7-7-7-8-8-8-5---5-5--||--------x-3/5-5-5-5-5-6-6-6-3---3-3--| x4
Intro Verse1 chorus verse2 chorus bridge chorus Outro (Intro) Enjoy since there is only one on here and its wrong
Tap to rate this tab
 
# A B C D E F G H I J K L M N O P Q R S T U V W X Y Z