Cold - Give tab

Give
Cold
tuning - D A D G B E 
By Fabricio Dias Pereira / Brazil

Intro

Gtr 1. (0:00 s)|----------------------------------------------------||----------------------------------------------------||----------------------------------------------------||--10-10-10-10-13-13-13-13-13-13-13-13-11-11-11------||--10-10-10-10-11-11-11-11-13-13-13-13-11-11-11------||--10-10-10-10-------------13-13-13-13-11-11-11------| ----- |----- 2 X|----------------------------------------------------| -----|----------------------------------------------------||----------------------------------------------------||--10-10-10-10-13-13-13-13-13-13-13-13-X-X-11-X-X-11-||--10-10-10-10-11-11-11-11-13-13-13-13-X-X-11-X-X-11-||--10-10-10-10-------------13-13-13-13-X-X-11-X-X-11-|
|-----||-----||-----||-10--||-10--||-10--|
Gtr 2. (00:08 s)|---------------------------------------------------||---------------------------------------------------||----------------13---------------------------------||------------------------------13------------11-----||----15---------------------------------------------||---------------------------------------------------| 2X with Delay
Verse 1Gtr1. (00:29 s) |-----------------------------------|--------------------------17(nh)--||-----------------------------------|----------------------------------||-----------------------------------|----------------------------------||-----------------------------------|---X-X----------------------------||-----------------------------------|---X-X----------------------------||-----------------------------------|---X-X----------------------------|
Gtr1 + Gtr2 (00:34 s)|----------------------------------------------------||----------------------------------------------------||----------------------------------------------------||--10-10-10-10-13-13-13-13-13-13-13-13-11-11-11------||--10-10-10-10-11-11-11-11-13-13-13-13-11-11-11------||--10-10-10-10-------------13-13-13-13-11-11-11------| --- |--- 2X|----------------------------------------------------| ---|----------------------------------------------------||----------------------------------------------------||--10-10-10-10-13-13-13-13-13-13-13-13-X-X-11-X-X-11-||--10-10-10-10-11-11-11-11-13-13-13-13-X-X-11-X-X-11-||--10-10-10-10-------------13-13-13-13-X-X-11-X-X-11-|
Chorus 1Gtr 1. (00:50 s)|------------------------------------------------------------------------||------------------------------------------------------------------------||-10-10-10-10-10-10-10-10-10-10-8-8-8-8-8-8-8-8-8-8-6-6-6-6-6-6-6-6-6-6--||-10-10-10-10-10-10-10-10-10-10-8-8-8-8-8-8-8-8-8-8-6-6-6-6-6-6-6-6-6-6--||-8--8--8--8--8--8--8--8--8--8--6-6-6-6-6-6-6-6-6-6-4-4-4-4-4-4-4-4-4-4--||------------------------------------------------------------------------|
|---------------------||---------------------||-8-8-8-8-8-8-8-8-8-8-||-8-8-8-8-8-8-8-8-8-8-||-6-6-6-6-6-6-6-6-6-6-| ----- 2X|---------------------|
Gtr 2.|------------------------------------------------------------------------||------------------------------------------------------------------------||------10----------------------------8--------------------6--------------||---10-----------------------------8--------------------6----------------||-8------------------------------6--------------------4------------------||------------------------------------------------------------------------|
|---------------------||---------------------||-----8---------------||---8-----------------||-6-------------------||---------------------| --- 2X with Delay
Interlude
Gtr 1. (01:07 s)|----------------------------------------------------||----------------------------------------------------||----------------------------------------------------||--10-10-10-10-13-13-13-13-13-13-13-13-11-11-11------||--10-10-10-10-11-11-11-11-13-13-13-13-11-11-11------||--10-10-10-10-------------13-13-13-13-11-11-11------|
|----------------------------------------------------| |----------------------------------------------------||----------------------------------------------------||--10-10-10-10-13-13-13-13-13-13-13-13-X-X-11-X-X-11-||--10-10-10-10-11-11-11-11-13-13-13-13-X-X-11-X-X-11-||--10-10-10-10-------------13-13-13-13-X-X-11-X-X-11-|
|-----||-----||-----||-10--||-10--||-10--|
Verse 2
Gtr 2. (01:24 s)|------------------------------------|---------------------------------||------------------------------------|---------------------------------||------------------------------------|-----------13--------------------||------------------------------------|---------------------13-----11---||------------------------------------|-15------------------------------| |------------------------------------|---------------------------------|--6 X with Delay
Gtr 1 (01:28 s)|------------------------------------|--------------------------17(nh)-||------------------------------------|---------------------------------||------------------------------------|---------------------------------||------------------------------------|---------------------------------||------------------------------------|---------------------------------||------------------------------------|---------------------------------|
Gtr1 (01:32 s)|----------------------------------------------------||----------------------------------------------------||----------------------------------------------------||--10-10-10-10-13-13-13-13-13-13-13-13-11-11-11------||--10-10-10-10-11-11-11-11-13-13-13-13-11-11-11------||--10-10-10-10-------------13-13-13-13-11-11-11------| --- |--- 2X|----------------------------------------------------| ---|----------------------------------------------------||----------------------------------------------------||--10-10-10-10-13-13-13-13-13-13-13-13-X-X-11-X-X-11-||--10-10-10-10-11-11-11-11-13-13-13-13-X-X-11-X-X-11-||--10-10-10-10-------------13-13-13-13-X-X-11-X-X-11-|
Chorus 2
Gtr 1. (01:49 s)|------------------------------------------------------------------------||------------------------------------------------------------------------||-10-10-10-10-10-10-10-10-10-10-8-8-8-8-8-8-8-8-8-8-6-6-6-6-6-6-6-6-6-6--||-10-10-10-10-10-10-10-10-10-10-8-8-8-8-8-8-8-8-8-8-6-6-6-6-6-6-6-6-6-6--||-8--8--8--8--8--8--8--8--8--8--6-6-6-6-6-6-6-6-6-6-4-4-4-4-4-4-4-4-4-4--||------------------------------------------------------------------------|
|---------------------||---------------------||-8-8-8-8-8-8-8-8-8-8-||-8-8-8-8-8-8-8-8-8-8-||-6-6-6-6-6-6-6-6-6-6-| ----- 4X|---------------------|
Gtr 2.|------------------------------------------------------------------------||------------------------------------------------------------------------||------10----------------------------8--------------------6--------------||---10-----------------------------8--------------------6----------------||-8------------------------------6--------------------4------------------||------------------------------------------------------------------------|
|---------------------||---------------------||-----8---------------||---8-----------------||-6-------------------||---------------------| --- 4X with Delay
Bridge
Gtr 1. (02:23 s)|-----------------||-----------------||-----------------||--10-10-10-10----||--8--8--8--8-----||-----------------| --- 8 X
|-----------------||-----------------||--XXX------------||--XXX------------||--XXX------------||--XXX------------|
Gtr 2. (02:24 s) |-----------------||-----------------||------------10---||-----------------||-----------------||-----------------| -- 4 X with Delay
Gtr 2. (02:31 s)|---------------------------------------------------||---------------------------------------------------||----------------13---------------------------------||------------------------------13------------11-----||----15---------------------------------------------||---------------------------------------------------| 2X with Delay
|----||----||-8--||----||----||----| 1 X with Delay
Gtr 1. (02:39 s)|-------------------------------------------||-------------------------------------------||-------------------------------------------||--10----------13----------13----------11---||--10----------11----------13----------11---||--10----------------------13----------11---| -- 2 X
Chorus 3
Gtr 1. (02:48 s)|------------------------------------------------------------------------||------------------------------------------------------------------------||-10-10-10-10-10-10-10-10-10-10-8-8-8-8-8-8-8-8-8-8-6-6-6-6-6-6-6-6-6-6--||-10-10-10-10-10-10-10-10-10-10-8-8-8-8-8-8-8-8-8-8-6-6-6-6-6-6-6-6-6-6--||-8--8--8--8--8--8--8--8--8--8--6-6-6-6-6-6-6-6-6-6-4-4-4-4-4-4-4-4-4-4--||------------------------------------------------------------------------|
|---------------------||---------------------||-8-8-8-8-8-8-8-8-8-8-||-8-8-8-8-8-8-8-8-8-8-||-6-6-6-6-6-6-6-6-6-6-| ----- Play This 6X till The End|---------------------|
Gtr 2.|------------------------------------------------------------------------||------------------------------------------------------------------------||------10----------------------------8--------------------6--------------||---10-----------------------------8--------------------6----------------||-8------------------------------6--------------------4------------------||------------------------------------------------------------------------|
|---------------------||---------------------||-----8---------------||---8-----------------||-6-------------------||---------------------| --- 4X with Delay
Gtr 2. (03:21 s)|----------------------------------------------||-9----8----9----8----9----8----9----11----13--||----------------------------------------------||----------------------------------------------||----------------------------------------------||----------------------------------------------| With Delay, After the -13- let play.
Tap to rate this tab
 
# A B C D E F G H I J K L M N O P Q R S T U V W X Y Z