Cold – Serial Killer tab

Transcribed by - Michael Doyle 
Contact me at goawey@hotmail.com
http://www.iol.ie/~cold

tuning - C F Bb Eb G C (two whole steps/4 frets down)


Serial Killer

Intro

|-------------------------|--------------------------------||-------------------------|--------------------------------||-------------------------|--------------------------------||-12h14-14-14-12h14-14-14-|-12h14p12------14^-------14^r---||-12----------12----------|-12--------13--------12---------||-------------------------|--------------------------------|
|-------------------------|--------------------------------||-------------------------|--------------------------------||-------------------------|--------------------------------||-12h14-14-14-12h14-14-14-|-12h14p12------14^-------14^r---||-12----------12----------|-12--------13--------12---------||-------------------------|--------------------------------|
Gtr 1|-------------------------|--------------------------------||-------------------------|--------------------------------||-------------------------|--------------------------------||-12h14-14-14-12h14-14-14-|-12h14p12------14^-------14^r---||-12----------12----------|-12--------13--------12---------||-------------------------|--------------------------------|
Gtr 2|-------------------------|--------------------------------||-10h12-12-12-10h12-12-12-|-10h12p10-----------------------||-------------------------|-------------8^--------7^-------||-------------------------|--------------------------------||-------------------------|--------------------------------||-------------------------|--------------------------------|
Gtr 1|-------------------------|--------------------------------||-------------------------|--------------------------------||-------------------------|--------------------------------||-12h14-14-14-12h14-14-14-|-12h14p12------14^-------14^r---||-12----------12----------|-12--------13--------12---------||-------------------------|--------------------------------|
Gtr 2|-------------------------|--------------------------------||-10h12-12-12-10h12-12-12-|-10h12p10-----------------------||-------------------------|-------------8^--------7^-------||-------------------------|--------------------------------||-------------------------|--------------------------------||-------------------------|--------------------------------|
Verse 1"I can see the bodies on the wall"|-------------------------|--------------------------------||-10h12-12-12-10h12-12-12-|-10h12p10---------12--------12^-||-------------------------|-------------8^--------7^-------||-------------------------|--------------------------------||-------------------------|--------------------------------||-------------------------|--------------------------------|
|-------------------------|--------------------------------||-10h12-12-12-10h12-12-12-|-10h12p10---------12--------12^-||-------------------------|-------------8^--------7^-------||-------------------------|--------------------------------||-------------------------|--------------------------------||-------------------------|--------------------------------|
Chorus 1Gtr 1|-------------------------------------------------------------------------------------------------||-------------------------------------------------------------------------------------------------||-------------------------------------------------------------------------------------------------||--5---5--5--5-5-5-5-5--4---4--4--4-4-4-4-4-------------------------------------------------------||--3---3--3--3-3-3-3-3--2---2--2--2-2-2-2-2-/7--7-7--/7--7-7--7-7-7-7--/7--7-7--/7--7-7--7-7-7-7--||-------------------------------------------/5--5-5--/5--5-5--5-5-5-5--/5--5-5--/5--5-5--5-5-5-5--|
Gtr 2|--------------10-------------------10------------------------10-----------------------------10---||--13-------------------12------------------10-----------------------------10---------------------||-------------------------------------------------------------------------------------------------||-------------------------------------------------------------------------------------------------||-------------------------------------------------------------------------------------------------||-------------------------------------------------------------------------------------------------|
Gtr 1|-------------------------------------------------------------------------------------------------||-------------------------------------------------------------------------------------------------||-------------------------------------------------------------------------------------------------||--5---5--5--5-5-5-5-5--4---4--4--4-4-4-4-4-------------------------------------------------------||--3---3--3--3-3-3-3-3--2---2--2--2-2-2-2-2-/7--7-7--/7--7-7--7-7-7-7--/7--7-7--/7--7-7--7-7-7-7--||-------------------------------------------/5--5-5--/5--5-5--5-5-5-5--/5--5-5--/5--5-5--5-5-5-5--|
Gtr 2|--------------10-------------------10------------------------10-----------------------------10---||--13-------------------12------------------10-----------------------------10---------------------||-------------------------------------------------------------------------------------------------||-------------------------------------------------------------------------------------------------||-------------------------------------------------------------------------------------------------||-------------------------------------------------------------------------------------------------|
Gtr 1|-------------------------------------------------------------------------------------------------||-------------------------------------------------------------------------------------------------||-------------------------------------------------------------------------------------------------||--5---5--5--5-5-5-5-5--4---4--4--4-4-4-4-4-------------------------------------------------------||--3---3--3--3-3-3-3-3--2---2--2--2-2-2-2-2-/7--7-7--/7--7-7--7-7-7-7--/7--7-7--/7--7-7--7-7-7-7--||-------------------------------------------/5--5-5--/5--5-5--5-5-5-5--/5--5-5--/5--5-5--5-5-5-5--|
Gtr 2|--------------10-------------------10------------------------10-----------------------------10---||--13-------------------12------------------10-----------------------------10---------------------||-------------------------------------------------------------------------------------------------||-------------------------------------------------------------------------------------------------||-------------------------------------------------------------------------------------------------||-------------------------------------------------------------------------------------------------|
Gtr 1|-------------------------------------------------------------------------------------------------||-------------------------------------------------------------------------------------------------||-------------------------------------------------------------------------------------------------||--5---5--5--5-5-5-5-5--4---4--4--4-4-4-4-4-------------------------------------------------------||--3---3--3--3-3-3-3-3--2---2--2--2-2-2-2-2-/7--7-7--/7--7-7--7-7-7-7--/7--7-7--/7--7-7--7-7-7-7--||-------------------------------------------/5--5-5--/5--5-5--5-5-5-5--/5--5-5--/5--5-5--5-5-5-5--|
Gtr 2|--------------10-------------------10------------------------10-----------------------------10---||--13-------------------12------------------10-----------------------------10---------------------||-------------------------------------------------------------------------------------------------||-------------------------------------------------------------------------------------------------||-------------------------------------------------------------------------------------------------||-------------------------------------------------------------------------------------------------|
Gtr 1|-------------------------|--------------------------------||-------------------------|--------------------------------||-------------------------|--------------------------------||-12h14-14-14-12h14-14-14-|-12h14p12------14^-------14^r---||-12----------12----------|-12--------13--------12---------||-------------------------|--------------------------------|
Gtr 2|-------------------------|--------------------------------||-10h12-12-12-10h12-12-12-|-10h12p10-----------------------||-------------------------|-------------8^--------7^-------||-------------------------|--------------------------------||-------------------------|--------------------------------||-------------------------|--------------------------------|
Gtr 1|-------------------------|--------------------------------||-------------------------|--------------------------------||-------------------------|--------------------------------||-12h14-14-14-12h14-14-14-|-12h14p12------14^-------14^r---||-12----------12----------|-12--------13--------12---------||-------------------------|--------------------------------|
Gtr 2|-------------------------|--------------------------------||-10h12-12-12-10h12-12-12-|-10h12p10-----------------------||-------------------------|-------------8^--------7^-------||-------------------------|--------------------------------||-------------------------|--------------------------------||-------------------------|--------------------------------|Verse 2
"I can see the knives hung on the wallpm..........................................................|-------------------------|--------------------------------||-10h12-12-12-10h12-12-12-|-10h12p10-----------------------||-------------------------|-------------8^--------7^-------||-------------------------|--------------------------------||-------------------------|--------------------------------||-------------------------|--------------------------------|
pm..........................................................|-------------------------|--------------------------------||-10h12-12-12-10h12-12-12-|-10h12p10-----------------------||-------------------------|-------------8^--------7^-------||-------------------------|--------------------------------||-------------------------|--------------------------------||-------------------------|--------------------------------|
Chorus 2
|-------------------------------------------------------------------------------------------------||-------------------------------------------------------------------------------------------------||-------------------------------------------------------------------------------------------------||--5---5--5--5-5-5-5-5--4---4--4--4-4-4-4-4-------------------------------------------------------||--3---3--3--3-3-3-3-3--2---2--2--2-2-2-2-2-/7--7-7--/7--7-7--7-7-7-7--/7--7-7--/7--7-7--7-7-7-7--||-------------------------------------------/5--5-5--/5--5-5--5-5-5-5--/5--5-5--/5--5-5--5-5-5-5--|
Gtr 2|--------------10-------------------10------------------------10-----------------------------10---||--13-------------------12------------------10-----------------------------10---------------------||-------------------------------------------------------------------------------------------------||-------------------------------------------------------------------------------------------------||-------------------------------------------------------------------------------------------------||-------------------------------------------------------------------------------------------------|
Gtr 1|-------------------------------------------------------------------------------------------------||-------------------------------------------------------------------------------------------------||-------------------------------------------------------------------------------------------------||--5---5--5--5-5-5-5-5--4---4--4--4-4-4-4-4-------------------------------------------------------||--3---3--3--3-3-3-3-3--2---2--2--2-2-2-2-2-/7--7-7--/7--7-7--7-7-7-7--/7--7-7--/7--7-7--7-7-7-7--||-------------------------------------------/5--5-5--/5--5-5--5-5-5-5--/5--5-5--/5--5-5--5-5-5-5--|
Gtr 2|--------------10-------------------10------------------------10-----------------------------10---||--13-------------------12------------------10-----------------------------10---------------------||-------------------------------------------------------------------------------------------------||-------------------------------------------------------------------------------------------------||-------------------------------------------------------------------------------------------------||-------------------------------------------------------------------------------------------------|
Gtr 1|-------------------------------------------------------------------------------------------------||-------------------------------------------------------------------------------------------------||-------------------------------------------------------------------------------------------------||--5---5--5--5-5-5-5-5--4---4--4--4-4-4-4-4-------------------------------------------------------||--3---3--3--3-3-3-3-3--2---2--2--2-2-2-2-2-/7--7-7--/7--7-7--7-7-7-7--/7--7-7--/7--7-7--7-7-7-7--||-------------------------------------------/5--5-5--/5--5-5--5-5-5-5--/5--5-5--/5--5-5--5-5-5-5--|
Gtr 2|--------------10-------------------10------------------------10-----------------------------10---||--13-------------------12------------------10-----------------------------10---------------------||-------------------------------------------------------------------------------------------------||-------------------------------------------------------------------------------------------------||-------------------------------------------------------------------------------------------------||-------------------------------------------------------------------------------------------------|
Gtr 1|-------------------------------------------------------------------------------------------------||-------------------------------------------------------------------------------------------------||-------------------------------------------------------------------------------------------------||--5---5--5--5-5-5-5-5--4---4--4--4-4-4-4-4-------------------------------------------------------||--3---3--3--3-3-3-3-3--2---2--2--2-2-2-2-2-/7--7-7--/7--7-7--7-7-7-7--/7--7-7--/7--7-7--7-7-7-7--||-------------------------------------------/5--5-5--/5--5-5--5-5-5-5--/5--5-5--/5--5-5--5-5-5-5--|
Gtr 2|--------------10-------------------10------------------------10-----------------------------10---||--13-------------------12------------------10-----------------------------10---------------------||-------------------------------------------------------------------------------------------------||-------------------------------------------------------------------------------------------------||-------------------------------------------------------------------------------------------------||-------------------------------------------------------------------------------------------------|
Gtr 1|-------------------------|--------------------------------||-------------------------|--------------------------------||-------------------------|--------------------------------||-12h14-14-14-12h14-14-14-|-12h14p12------14^-------14^r---||-12----------12----------|-12--------13--------12---------||-------------------------|--------------------------------|
Gtr 2|-------------------------|--------------------------------||-10h12-12-12-10h12-12-12-|-10h12p10----17~----------------||-------------------------|--------------------------------||-------------------------|--------------------------------||-------------------------|--------------------------------||-------------------------|--------------------------------|
Gtr 1|-------------------------|--------------------------------||-------------------------|--------------------------------||-------------------------|--------------------------------||-12h14-14-14-12h14-14-14-|-12h14p12------14^-------14^r---||-12----------12----------|-12--------13--------12---------||-------------------------|--------------------------------|
Gtr 2|-------------------------|--------------------------------||-10h12-12-12-10h12-12-12-|-10h12p10----17~----------------||-------------------------|--------------------------------||-------------------------|--------------------------------||-------------------------|--------------------------------||-------------------------|--------------------------------|
Bridge
|---------------------------------||---------------------------------||--10~---------12~---------9~-----||---------------------------------||---------------------------------||---------------------------------|
|---------------------------------||---------------------------------||--10~---------12~---------9~-----||---------------------------------||---------------------------------||---------------------------------|
|---------------------------------||---------------------------------||--10~---------12~---------9~-----||------------------------------x\-|pick scrapes from pick up|------------------------------x\-||------------------------------x\-|
|---------------------------------||---------------------------------||--10~---------12~---------9~-----||------------------------------x--|more pick scrapes|------------------------------x--||------------------------------x--|
|---------------------------------||----------12---14-----15---------||--10~----------------------------||---------------------------------||---------------------------------||---------------------------------|
Chorus 3
Gtr 1|-------------------------------------------------------------------------------------------------||-------------------------------------------------------------------------------------------------||-------------------------------------------------------------------------------------------------||--5---5--5--5-5-5-5-5--4---4--4--4-4-4-4-4-------------------------------------------------------||--3---3--3--3-3-3-3-3--2---2--2--2-2-2-2-2-/7--7-7--/7--7-7--7-7-7-7--/7--7-7--/7--7-7--7-7-7-7--||-------------------------------------------/5--5-5--/5--5-5--5-5-5-5--/5--5-5--/5--5-5--5-5-5-5--|
Gtr 2|--------------10-------------------10------------------------10-----------------------------10---||--13-------------------12------------------10-----------------------------10---------------------||-------------------------------------------------------------------------------------------------||-------------------------------------------------------------------------------------------------||-------------------------------------------------------------------------------------------------||-------------------------------------------------------------------------------------------------|
Gtr 1|-------------------------------------------------------------------------------------------------||-------------------------------------------------------------------------------------------------||-------------------------------------------------------------------------------------------------||--5---5--5--5-5-5-5-5--4---4--4--4-4-4-4-4-------------------------------------------------------||--3---3--3--3-3-3-3-3--2---2--2--2-2-2-2-2-/7--7-7--/7--7-7--7-7-7-7--/7--7-7--/7--7-7--7-7-7-7--||-------------------------------------------/5--5-5--/5--5-5--5-5-5-5--/5--5-5--/5--5-5--5-5-5-5--|
Gtr 2|--------------10-------------------10------------------------10-----------------------------10---||--13-------------------12------------------10-----------------------------10---------------------||-------------------------------------------------------------------------------------------------||-------------------------------------------------------------------------------------------------||-------------------------------------------------------------------------------------------------||-------------------------------------------------------------------------------------------------|
Gtr 1|-------------------------------------------------------------------------------------------------||-------------------------------------------------------------------------------------------------||-------------------------------------------------------------------------------------------------||--5---5--5--5-5-5-5-5--4---4--4--4-4-4-4-4-------------------------------------------------------||--3---3--3--3-3-3-3-3--2---2--2--2-2-2-2-2-/7--7-7--/7--7-7--7-7-7-7--/7--7-7--/7--7-7--7-7-7-7--||-------------------------------------------/5--5-5--/5--5-5--5-5-5-5--/5--5-5--/5--5-5--5-5-5-5--|
Gtr 2|--------------10-------------------10------------------------10-----------------------------10---||--13-------------------12------------------10-----------------------------10---------------------||-------------------------------------------------------------------------------------------------||-------------------------------------------------------------------------------------------------||-------------------------------------------------------------------------------------------------||-------------------------------------------------------------------------------------------------|
Gtr 1|-------------------------------------------------------------------------------------------------||-------------------------------------------------------------------------------------------------||-------------------------------------------------------------------------------------------------||--5---5--5--5-5-5-5-5--4---4--4--4-4-4-4-4-------------------------------------------------------||--3---3--3--3-3-3-3-3--2---2--2--2-2-2-2-2-/7--7-7--/7--7-7--7-7-7-7--/7--7-7--/7--7-7--7-7-7-7--||-------------------------------------------/5--5-5--/5--5-5--5-5-5-5--/5--5-5--/5--5-5--5-5-5-5--|
Gtr 2|--------------10-------------------10------------------------10-----------------------------10---||--13-------------------12------------------10-----------------------------10---------------------||-------------------------------------------------------------------------------------------------||-------------------------------------------------------------------------------------------------||-------------------------------------------------------------------------------------------------||-------------------------------------------------------------------------------------------------|
Outro"I wanna watch ya burn"|-------------------------|--------------------------------||-10h12-12-12-10h12-12-12-|-10h12p10---17~-----------------||-------------------------|----------9---------------------||-------------------------|--------------------------------||-------------------------|--------------------------------||-------------------------|--------------------------------|
|-------------------------|--------------------------------||-10h12-12-12-10h12-12-12-|-10h12p10---17~-----------------||-------------------------|----------9---------------------||-------------------------|--------------------------------||-------------------------|--------------------------------||-------------------------|--------------------------------|
|---12--13---15-----------|---12--13---15^-----------------||-------------------------|--------------------------------||-------------------------|--------------------------------||-------------------------|--------------------------------||-------------------------|--------------------------------||-------------------------|--------------------------------|
============== Author/Artist: Cold Title: Serial Killer Album: Cold Transcribed by: Wes Dolezal Email: Laminate_Man@yahoo.com Tunning: Drop D This is the second song I tabed. Don't forget to let me know what you think of these tabs, and if I sohould go ahead and do more. Visit my website http://www.geocities.com/SunsetStrip/Diner/8868/main.html
-|------------------------------------------------|-|------------------------------------------------|-|------------------------------------------------|-|-8h10-10-10--8h10-10-10-8h10-8----8/10---10br~--|-|-8-----8--8--8-----8--8-8----8--9------8--------|-|------------------------------------------------|Opening/main riff.
-|----------------------------------------|-|-6h8-8-8-6h8-8-8-6h8r6------------------|-|-----------------------6-6/8--5-5b6r5~--|-|----------------------------------------|-|----------------------------------------|-|----------------------------------------|Lead Riff play at the beging and inthe verse sometimes.
-|-----------------------------|-|-6~~~~~~~-----8~~~~~--5~~~---|-|-----------------------------|-|-----------------------------|-|-----------------------------|-|-----------------------------|You here these notes ring faintly in the verse sometimes.
-|------------|-|------------|-|------------|-|-6---5---3--|-|-6---5---3--|-|-6---5---3--|Chorus progression, you know the pattern.
Please rate this tab:
x1.0