Collective Soul - New Vibration tab version 1

Collective Soul - New Vibration
2007 Album - Afterwords
Tabbed by:  Jeff Martin
Member:  blur819

TUNING: B-Gb-B-E-Ab-Db (Drop B?)

Intro:

Guitar 1:

|----------------------------------------||----------------------------------------||----------------------------------------||----------------------------------------||-0---------3-0---------------3-0----xx--||----12/6h7-----3-0-3-0---6h7----3-0-xx-|
|----------------------------------------||----------------------------------------||----------------------------------------||----------------------------------------||------3-0---------------3-0-----xx------||--6h7-----3-0-3-0---6h7----3-0-xx-12/3-|
Drums kick in Guitar 1 continues with intro riff Guitar 2:
|---------------------------------------||---------------------------------------||---------------------------------------||---------------------------------------||--6h7--3-0-3-0-3-0---6h7-3-0-3-0-xx---||--6h7------3-0-3-0---6h7-----3-0-xx---|
|----------------------------------------||----------------------------------------||----------------------------------------||----------------------------------------||--6h7-3-0-3-0-3-0---6h7-3-0-3-0--xxx---||--6h7-----3-0-3-0---6h7-----3-0--xxx---|
Verse 1: Guitar 1 & 2:
|---------------------||---------------------||---------------------||---------------------||-3-3-3----3-3-3-----||-3-3-3----3-3-3-----|>>>
>>>>Guitar 1 & 2 play the second part of the intro *Repeat sequence Chorus: Guitar 1 & 2:
|-----------------------------------||-10--------8--------7--------3-----||-10--------9--------7--------3-----| x2|-10--------9--------7--------3-----||-08--------7--------5--------1-----||------------------------------------|>>>
>>>>Guitar 1 & 2 play the second part of the intro Verse 2: Same as verse 1 sequence. Chorus 2:
Guitar 1:|-----------------------------------||-10--------8--------7--------3-----||-10--------9--------7--------3-----| x4|-10--------9--------7--------3-----||-08--------7--------5--------1-----||-----------------------------------|
Guitar 2:|-----------------------------------||-10--------8--------7--------3-----||-10--------9--------7--------3-----| x2|-10--------9--------7--------3-----||-08--------7--------5--------1-----||-----------------------------------|
|-----------------------------------------------------------------------||-----------------------------------------------------------------------||-10--10--10-10-10-10--9--9--9-9-9-9--7--7--7-7-7-7--3--3--3-3-3-3---| x2|-----------------------------------------------------------------------||-08--08--08-08-08-08--7--7--7-7-7-7--5--5--5-5-5-5--1--1--1-1-1-1---||-----------------------------------------------------------------------|*these chords could be played by guitar 2 in every chorus, with appropriate rhythm.
Solo: (could be kinda close... or not)...|----------13-12-12--17-15-15-13-13/17-||-15-13-13------------------------------||----------------------------------------||----------------------------------------||----------------------------------------||----------------------------------------|
|----------13-12-12-13-13-15-15-17-17-18-18-20-20-||-15-13-13------------------------------------------||----------------------------------------------------||----------------------------------------------------||----------------------------------------------------||----------------------------------------------------|
|-13------------------------13-------------------------||-----15-13-15-13--------------15-13-15-13------------||------------------14-15-14-----------------14-15-14--||-------------------------------------------------------||-------------------------------------------------------||-------------------------------------------------------|
|-17-13-15-13--13------17-13-15-13--13---------13-13-15-15-17-17-18-18-19b21-||-------------15--15-13------------15---15-13-15--------------------------------||--------------------------------------------------------------------------------||--------------------------------------------------------------------------------||--------------------------------------------------------------------------------||--------------------------------------------------------------------------------|
Guitar 2 plays chorus barre chords behind solo x2 All the parts are there (are they correct? is another story. Enjoy this fun song to play anyways. Peace
Tap to rate this tab
 
# A B C D E F G H I J K L M N O P Q R S T U V W X Y Z