Comeback Kid – Without A Word tab

This is a pretty good song and I wanted to learn it but I could'nt find it.  So I
learned it by myself and I'm going to put it here.  And if it's not very good..well
sorry cuz its my first tab.And it's a nex band.

Standard Tuning

x=mute
|---|=Palm Mute
|...|=Tremolo|-.-|=Palm mute and Tremolo..at the same time ''' =Let ring
Intro
---------------------------------------|---------------------------------------|---------------------------------------|-9-9-9-9-10-10-10-10-9-9-10-10-7-7-4-x-|-9-9-9-9-10-10-10-10-9-9-10-10-7-7-4-x-|-7-7-7-7--8--8--8--8-7-7--8--8-5-5-2-x-|
Verse (2x)
---------------------------------------|---------------------------------------|---------------------------------------|-9-9-9-9-10-10-10-10-9-9-10-10-7-7-4-4-|-9-9-9-9-10-10-10-10-9-9-10-10-7-7-4-4-|-7-7-7-7--8--8--8--8-7-7--8--8-5-5-2-2-|
Chorus
----------------------------------------------------|----------------------------------------------------|-------------------------------------5-5-5----------|-4-4-4-4-4-4-4-4-4-4-4-4-4-4-4-4-4-4-5-5-5----------|-4-4-4-4-4-4-4-4-4-4-4-4-4-4-4-4-4-4-3-3-3----------|-2-2-2-2-2-2-2-2-2-2-2-2-2-2-2-2-2-2----------------| |-.-| |-.-| |-.------------------|
----------------------------------------------0-----|----------------------------------------------0-----|----------------------------------------------0-----|-4-4-4-4-4-4-4-4-4-4-4-4-4-4-4-4-4-4-9-7-9-10-------|-4-4-4-4-4-4-4-4-4-4-4-4-4-4-4-4-4-4-9-7-9-10-------|-2-2-2-2-2-2-2-2-2-2-2-2-2-2-2-2-2-2-7-5-7--8-------| |-.-| |-.-| |-.------------------|
Verse(2x)
---------------------------------------|---------------------------------------|---------------------------------------|-9-9-9-9-10-10-10-10-9-9-10-10-7-7-4-4-|-9-9-9-9-10-10-10-10-9-9-10-10-7-7-4-4-|-7-7-7-7--8--8--8--8-7-7--8--8-5-5-2-2-|
Chorus
----------------------------------------------------|----------------------------------------------------|-------------------------------------5-5-5----------|-4-4-4-4-4-4-4-4-4-4-4-4-4-4-4-4-4-4-5-5-5----------|-4-4-4-4-4-4-4-4-4-4-4-4-4-4-4-4-4-4-3-3-3----------|-2-2-2-2-2-2-2-2-2-2-2-2-2-2-2-2-2-2----------------| |-.-| |-.-| |-.------------------|
----------------------------------------------------|----------------------------------------------------|----------------------------------------------------|-4-4-4-4-4-4-4-4-4-4-4-4-4-4-4-4-4-4-9-7-9-10-x-----|-4-4-4-4-4-4-4-4-4-4-4-4-4-4-4-4-4-4-9-7-9-10-x-----|-2-2-2-2-2-2-2-2-2-2-2-2-2-2-2-2-2-2-7-5-7--8-x-----| |-.-| |-.-| |-.------------------|
Bridge(4x) You should listen to the song to get the rythym
------------------------------------|------------------------------------|------------------------------------|-4-4-4-4-4-4-4-4-7-7-7-7-7-7-7-7----| Palm mute on the fourth time-4-4-4-4-4-4-4-4-7-7-7-7-7-7-7-7----|-2-2-2-2-2-2-2-2-5-5-5-5-5-5-5-5----|
-------------------------------------|-------------------------------------|-------------------------------------|-10-10-10-9-9-9-7-7-7-9-9-9-7-7-5-5--|-10-10-10-9-9-9-7-7-7-9-9-9-7-7-5-5--|--8--8--8-7-7-7-5-5-5-7-7-7-5-5-3-3--| |---| |-| |-| |-| || ---|Interlude
------------------------------------|------------------------------------|------------------------------------|-4-''''-4-''''-4-''''-4-''''--------|-4-''''-4-''''-4-''''-4-''''--------|-2-''''-2-''''-2-''''-2-''''--------|
Outro
------------------------------------|------------------------------------|------------------------------------|-9-9-10-10-7-7-9-9-x-4-'''''-4-x----|-9-9-10-10-7-7-9-9-x-4-'''''-4-x----|-7-7--8--8-5-5-7-7-x-2-'''''-2-x----|
If you did find any errors...well you can tell me at The_vinson@hotmail.com and I'll try t fix it Please rate it..please:P
Please rate this tab:
x1.0