Conducting From The Grave - A Never Ending Search For Closure tab version 2

Conducting From The Grave
A Never Ending Search For Closer
C-G-C-F-A-d


Riff 1 Gt.1 [heard on right]---------------------------------------------------------|---------------------------------------------------------|-----------------------_---------------------------------|-----6----5-----------/ \--------------------------------|--pm---pm---pm--6-pm-4-6-4-3--pm*-3-**-3-4-***-6-6-6-4-3-|3-33---33---33----33----------666---66-----555-----------|
------------------------------------------------------------|------------------------------------------------------------|-----------------------_--------------------3-5-3-5-6-5-3-5-|-----6----5-----------/ \-----------------------------------|--pm---pm---pm--6-pm-4-6-4-3----pm-4-4-4-3-3----------------|3-33---33---33----33----------2-22--------------------------|
Riff 1 Gt.2 [heard on left]-------------------------|-------------------------|-------------------------|**--**--5-6-5-6-8-6-5-6--|33--22-------------------|33--22-------------------|
Riff 2 Gt.1 0:08-0:26-----------------------------------------------------------------|-----------------------_-----------------------------------------|-----5----3-----------/ \----------------------------------------|---------------5-----6-8-6-5-------------------------------------|--pm---pm---pm----pm----------*-*---*-6------6^8-***10-10-10-8-6-|3-33---33---33----33---------10-10-10---10-10----888-------------|
-----------------------------------------------------------|-----------------------_-----------------------------------|-----5----3-----------/ \------------------3-5-3-5-6-5-3-5-|---------------5-----6-8-6-5-----3-3-3-2-2-----------------|--pm---pm---pm----pm---------***---------------------------|3-33---33---33----33---------222---------------------------|
Riff 2 Gt.2---------------------------------------------------------|---------------------------------------------------------|-----------------------_---------------------------------|-----6----5-----------/ \--------------------------------|--pm---pm---pm--6-pm-4-6-4-3--pm*-3-**-3-4-***-6-6-6-4-3-|3-33---33---33----33----------666---66-----555-----------|
----------------------------------------------------------------|both gtrs end riff--------------------------------------------[with this----------|-----------------------_--------------------[-------------------|-----6----5-----------/ \-------------------[-------------------|--pm---pm---pm--6-pm-4-6-4-3----pm-4-4-4-3-3[-------------------|3-33---33---33----33----------2-22----------[-5-6-5-6-8-6-5-6---|
Riff 3 both gtrs 2 times 0:26-0:-------------------------------------------------------------|-------------------------------------------------------------|-------------------------------------------------------------|-------------------------------------------------------------|11-10-8-11-10-8-11-10-8-11-10-8--10-8-7-10-8-7-10-8-7-10-8-7-|-------------------------------------------------------------|
'///'=tremelo picked Gt.1-------------------------------]---------------------------|-------------------------------]------///-///--------------|-------------------------------]///-///9--10-///-///-5-6-5-|11-10-8-11-10-8-11-10-8-11-10-8]10--11--------6--8---------|-------------------------------]---------------------------|-------------------------------]---------------------------|
Gt.2--------///-///----------------|///-///-8---9------------------|9----10---------///-///-9-10-9-|-----------------10-11---------|-------------------------------|-------------------------------|
Riff 4 Gt.1 0:41-0:47---------------------------------------------------------------|---------------------------------------------------------------|---------------------------5-6-8-5-6-8--6-8-10-6-8-10----------|10-8-6-10-8-6--5-6-8-5-6-8-------------------------------------|---------------------------------------------------------------|---------------------------------------------------------------|
------------------------------------------|------------------------------------------|---------------------------5-6-8-6-5------|10-8-6-10-8-6--5-6-8-5-6-8-----------8-5~-|------------------------------------------|------------------------------------------|
Riff 4 Gt.2--------------------------------------------------------------|--------------------------------------------------------------|--------------------------------------------------------------|-------------------------------6-8-10-6-8-10--8-10-11-8-10-11-|11-10-8-11-10-8--7-8-10-7-8-10--------------------------------|--------------------------------------------------------------|
------------------------------------------------|------------------------------------------------|------------------------------------------------|-------------------------------6-8-10-8-6-------|11-10-8-11-10-8--7-8-10-7-8-10------------10-6~-|------------------------------------------------|
Riff 5 Gt.1 0:47-0:50------------------------------------------|------------------------------------8-----|----5-3-------10-8-6------------5-8---8-5-|***-----6-***--------555-8-6-5-6----------|444-------666-----------------------------|------------------------------------------|
Riff 5 Gt. 2--------------------------------------------|--------------------------------------------|--------------6-5--------------------9------|***-6-5-3-***-----8-----7-------7-10---10-7-|444-------333-------777---10-7-8------------|--------------------------------------------|
Riff 6 both gtrs.0:50-0:59-----------------------------------------------|-----------------------------------------------|-----------8--8--------------------8--8--------|-8--8-10-11----11-10-8---8--8-10-11----11-10-8-|-----------------------------------------------|-----------------------------------------------|
------------------------------------------------------|------------------------------------------------------|------------------------------------------------------|-----------8--------------------------8---------------|-8--8-10-11--11-10-8-10-11--8--8-10-11--11-10-8-10-11-|------------------------------------------------------|
guitar 2 plays this ending-]-Gt. 1 ending higher harmony---------------------------------------------------------------|-------------2 times----------]--------------------------------|------------------------------]-------------10-----------------|-------------10---------------]10--10-11-13----13-11-10-11-13--|10--10-11-13----13-11-10-11-13]--------------------------------|------------------------------]--------------------------------|
riff 5
Riff 7 Gt.1 1:13-1;47---------------------------------------------------------------------|---------------------------------------------------------------------|------------///-///--------------------------------------------------|///-///-///-8---11--*---*-*---*-13-*-*-10^11-*---*--*--*-------------|ph-8--10--11----------11--11-11-11--11-11-----10--10-10-10-13-11-10-7~-|---------------------------------------------------------------------|
Guitar 1 plays Guitar 2 plays-------------------[------------------------]--------------------------|-------------------[------------------------]--------------------------|------------///-///[-------------------10--9]--------------------------|///-///-///-8---11-[*-***11**10*-*-***---**-]*-***11**10*-*-***-11**10-|-8--10--11---------[7-777--77--7-7-777---77-]7-777--77--7-7-777---77---|-------------------[------------------------]--------------------------|
higher harmony at 1:13-1:47------------------------------------------------------------------------|------------------------------------------------------------------------|------------///-///-----------------------------------------------------|///-///-///-11--15--*---*-*---*17-*-*--13^15-*--*--*--*-----------------|11--13--15---------15--15-15-15--15-15------13--13-13-13-16-15-13-11-10-|------------------------------------------------------------------------|
clean section Gt 1----------8--------------8------------7-------------------|--------9---9-----------9-9----------9-9-----8-8-8/9-8/9--|------10------10------10---10------10---10---x------------|---10------------10-10-------10--10-------10-x------------|-8-----------------8------------7------------7------------|----------------------------------------------------------|
----------8--------------8------------7-------------------|--------9---9-----------9-9----------9-9-----8------------|------10------10------10---10------10---10---x------------|---10------------10-10-------10--10-------10-x------------|-8-----------------8------------7------------7------------|----------------------------------------------------------|
Gt.2------------------------------------------------|---------13-16-13-----------13-16-13------------|-------13--------12-------13--------12----------|----15-------------13---15------------13--------|-11-------------------11------------------------|------------------------------------------------|
---------------------------------------------|------9-11-----------------------------------|----12-----12-15-12--12-15-12----------------|--13---------------13---------13-------------|10-------------------------------------------|---------------------------------------------|
Riff 8 Gt.1 repeat 4 times 2:21-2:52-----------------------------------|-----------------------------------|-----------5555-3^5----------------|-----**--**--------**--**----------|-----33--33--------22|-22|---------|-21\-33--33--------22|-22|---------|
-------------------------------------------------------|-------------------------------------------------------|--------------------------5555-3^5---------------------|-6-5-6-8-6-5-6-**---**-**----------**-**-6-5-6-8-6-5-6-|---------------33---33-33----------22-22---------------|---------------33---33-33----------22-22---------------|
-------------------------------------------|-------------------------------------------|----------5555-3^5-****************--------|**---**-**---------3333333355555555--------|33---33-33---------4444444466667777--------|33---33-33---------------------------------|
Riff 8 Gt.2 4 times-----------------------------|-----------------------------|ph---------------------------|12\--**--**-6666-5^6-**--**--|-----33--33----------22|-22-|-----33--33----------22|-22-|
-------------------------------------------------------|-------------------------------------------------------|-------------------------------------------------------|---------------**---**-**-6666-5^6-**-**---------------|-4-3-4-6-4-3-4-33---33-33----------22-22-4-3-4-6-4-3-4-|---------------33---33-33----------22-22---------------|
----------------------------------------------|----------------------------------------------|---------------------****************---------|**---**-**-6666-5^6--3333333355555555---------|33---33-33-----------4444444466667777---------|33---33-33------------------------------------|
riff 2/1
Riff 9 Gt.1 3:10-3:32--------------------------------____-----------------|-------__----------------------/ \----------------|------/ \-----------12-------12-13-12---15-13-12----|----13-15-13----13-15---13-------------13---------13-|-8-----------15--------------------------------------|-----------------------------------------------------|
------------------------------------------------|---__-------------------------------------------|--/ \------------------------------------------|-9-10-9----9-------------13-11-10-11-10---------|--------13---13-11-10-------------------13------|------------------------------------------------|
Riff 9 Gt.2------------------------------__-----------------|------__---------------------/ \----------------|-----/ \-------------------8-10-8---------------|---10-11-10---10-11-13-------------10-11-10-8----|-8----------11---------11---------------------10-|-------------------------------------------------|
----------------------------------|---_------------------------------|--/ \-----------------------------|-6-8-6----6--------10-8-6-8-6-----|-------10---10-8-6------------10--|----------------------------------|
Riff 10 Gt.1 3:32-3:58-------------------------------__--------------------|------___---------------------/ \-------------------|-----/ \------------------12-13-12----15-13-12-----|---13-15-13--------------------------13----------14--|-11---------15-16-15-13-10---------------------------|-----------------------------------------------------|
----------------------------|---__-----------------------|--/ \----------------------|-8-10-8--------8-10-8-10-11-|--------10---11-------------|----------------------------|
Riff 10 Gt.2-----_----------------_-------------|----/ \--------------/ \------------|---5-6-5------------3-5-3---3-------|--------6-8-6-5-----------6---6-5---|-8----------------6---------------3-|------------------------------------|
------------------------------------|---_--------------------------------|--/ \-------------------------------|-3-5-3---3-5-6----5-6---6-8---------|-------6--------4-----1-------------|------------------------------------|
end Gt.1--------------------------------------|--------------------------------------|----------------------------*--*--ph--|-----8-10-/8-10-11-/10-----10-10--10--|\--11----------------------------------|--------------------------------------|
end Gt.2------------------------------|------------------------------|------------------------------|---5-6---5-6-------*-*-ph-----|-4-----6----/8-----8-8-8~~\---|------------------------------|
Tap to rate this tab
 
# A B C D E F G H I J K L M N O P Q R S T U V W X Y Z