Conducting From The Grave – And Our War Will Dawn tab

Conducting From The Grave-And Our War Will Dawn

C-G-C-F-A-D

tab is  for everything heard on left side

intro clean (4 lines)0:00-0:30

-----3-3---2-2---3-3-------2-2---3-3---2-2-------3-3---2-2---3-3---|-----5-5---5-5---5-5-------3-3---5-5---3-3-------5-5---5-5---5-5---|-------------------------------------------------------------------|-2---------------------0---------------------2---------------------|-------------------------------------------------------------------|-------------------------------------------------------------------|
----------3----------------------5---------------|-------4-----4----------------7-----7------------|------5---------5------------8---------8---------|-----3----------------------5--------------------|-3---------------------5-------------------------|-------------------------------------------------|
-----3-3---2-2---3-3-------2-2---3-3---2-2-------3-3---2-2---3-3---|-----5-5---5-5---5-5-------3-3---5-5---3-3-------5-5---5-5---5-5---|-------------------------------------------------------------------|-2---------------------0---------------------2---------------------|-------------------------------------------------------------------|-------------------------------------------------------------------|
----------------------------------------------------------------|------4-----------7---------10-------------------13-------------|-----5-----------8---------11-------------14----14--------------|----3-----------6----------9-----------13-----------------------|3--3------3/6--6-----6/9--9------9/12---------------------------|----------------------------------------------------------------|
dist intro (2 lines) 0:15-0:32-------------------------------------------------------------------|------------------------------12)(-------------------------)(------|-----------12--14--14/16-14--------11---12/14\12-11------11--------|--/14-----------------------------------------------12--------14---|-------------------------------------------------------------------|-------------------------------------------------------------------|
) (-15-17|17/19-17---17--------------------------------------------------------|----------------------------19---19|19\16--16|16\13--13|13\10--10|10\7------|----------------------------------------------------------------------------|----------------------------------------------------------------------------|----------------------------------------------------------------------------|----------------------------------------------------------------------------|
Riff 1 (2 lines)0:32-0:43
------------------------------------------------------------------|------------------------------------------------------------------|------------------------------------------------------------------|----------4422555544224455442244----------3311444433113344331133--|22------------------------------11--------------------------------|--55222222------------------------44111111------------------------|
------------------------------------------------------------------|------------------------------------------------------------------|------------------------------------------------------------------|----------4422555544224455442244-------------------------1----1---|22------------------------------11--------11------11-----1-PM-1---|--55222222------------------------44111111--441111--4411---4------|
Riff 2 0:44-0:55 repeats 2 times
--------------------------------------------------------------|--------------------------------------------------------------|--------------------------------------------------------------|2-----------2---2-----22---2----1----------1---1-----11---1---|2-PM-2------2-*-2---*-22-*-2----1-*-1------1-*-1---*-11-*-1---|--5--2--------5-----5----5--------4-1--------4-----4----4-----|
Riff 3 0:55-1:07 repeats 2 times
--------------------------------------------|--------------------------------------------|--------------------------------------------|2-----------*-*-*--*-*--1--------*-*-*--*-*-|2-*-----~~--2-2-2--2-2--1-*--)(--1-1-1--1-1-|--5-2-/14---2-2-2--2-2----4-1----1-1-1--1-1-|
3/4ths of Riff 1 repeats 1:08-1:18 Riff 4 (2 lines) 1:18-1:32
---------------------------------------------------------------------|---------------------------------------------------------------------|-----222244445555----222244445555-----4-4--2-2--4-4-----2-2--4-4-----|-----------------1111---------------------------------------------4-4|-3333------------------------------2------------------1--------------|-----------------------------------2------------------1--------------|
----------------------------------------|-------------------------------------~--|----4-4--2-2--5-5------5-5--8-8--11-11--|----------------------------------------|-3------------------2-------------------|----------------------------------------|
Riff 5 (2lines) 1:33-1:41
--------------------------------------------------------------------------------------------|-------------------------__--------------------------------------------_--------------------|-------___________------/ \----T---^----T---^----T-------________----/ \----T--^---T--^---T|------/ \---10-12-14-17-10-12-16-10-12-17------/ \--7-9-10-14-7-9-13-7-9-14|10--12-14-12-10-12-14-------------------------------7--9-10-9-7-9-10------------------------|10--------------------------------------------------7---------------------------------------|
----------------------------------------------------------------|----------------------------------------------------------------|-----4-4-4-4-----2-2-2-2-------------4-4-4-4-----2-2-2-2--------|-----5-5-5-5-2-2-4-4-4-4-4-4-4-------5-5-5-5-2-2-4-4-4-4-4-4-4--|2--2---------2-2---------5-5-5--2--2---------2-2---------5-5-5--|2--2----------------------------2--2----------------------------|
Riff 6 (2lines) repeats 2 and 1/2 times 1:42-2:04
--------------------------------------------------------------------------------------------|-------------------------__--------------------------------------------_--------------------|-------___________------/ \----T---^----T---^----T-------________----/ \----T--^---T--^---T|------/ \---10-12-14-21-10-12-19-10-12-21------/ \--7-9-10-17-7-9-16-7-9-17|10--12-14-12-10-12-14-------------------------------7--9-10-9-7-9-10------------------------|10--------------------------------------------------7---------------------------------------|
----------------------------------------------------------------|----------------------------------------------------------------|-----4-4-4-4-----2-2-2-2-------------4-4-4-4-----2-2-2-2--------|-----5-5-5-5-2-2-4-4-4-4-4-4-4-------5-5-5-5-2-2-4-4-4-4-4-4-4--|2--2---------2-2---------5-5-5--2--2---------2-2---------5-5-5--|2--2----------------------------2--2----------------------------|
Riff 7 (2lines) 2:05-2:13
------------------------------------------------------------|------------------------------------------------------------|------------------------------------------------------------|------------------------------------------------------------|-2--*-***-***----*-***-*-*-*-2--*-***-***----*-***-*-*-*----|-2--2-222-222----2-222-2-2-2-2--2-222-222----2-222-2-2-2----|
-------------------------------------------------------------------|----------------------------------------------_------_------__-----|---------------------------------------------/ \----/ \----/ \--9-|-5--*-***-***----*-***-*-*-*-2--*-***-***-*-7-5-0-10-9-0-12-10-0---|-3--3-333-333----3-333-3-3-3-0--0-000-000-0------------------------|-------------------------------------------------------------------|
Solo (7 lines) 2:13 2:16
-------------------------12----------15-17-19--------17-19-20--|----------------12-14-16---------------------17-19-20----------|--------11-12-14-------------16-17-19--------------------------|10-12-14-------------------------------------------------------|---------------------------------------------------------------|---------------------------------------------------------------|
2:16 2:20 )-19----17----20-20---20~---24-24\19-19-19-19/22-22-22-22\17-17-17-17/19-19-19--|-------------------------------------------------------------------------------|-------------bent 2 steps------------------------------------------------------|-------------------------------------------------------------------------------|-------------------------------------------------------------------------------|-------------------------------------------------------------------------------|
2:21 _ ____ 2:25 / \ / \\14-14-14/15-15-15\10-10-10/12-12-12\8-8-8-8-----7-8-7----57575757-----ph---|-------------------------------------------------------10----------8-7-5~---|----------------------------------------------------------------------------|----------------------------------------------------------------------------|----------------------------------------------------------------------------|----------------------------------------------------------------------------|
2:26 2:30 _ _ _ / \ )( / \ T ^ T ^ T)( -/ \--5-7-8-/10-8-7------7----7----7-8-10-17-7-8-15-7-8-14---|5-7-8-------------------8----8----8--------------------------|-----------------------9----9----9---------------------------|---------------------10---10---10----------------------------|-------------------------------------------------------------|-------------------------------------------------------------|
2:30 2:34 __ __ / \ / \ 10-14-10-----7-10-7---------------------))----------14--17--------^-------------------|----------10--------8/12--10|-12|-14|-16----/17-17----15--15\10-12-8------------------|--------12----------------------------------------16-----------------9------9-12-11---|-----------------------------------------------------------------------10-9---------12|--------------------------------------------------------------------------------------|--------------------------------------------------------------------------------------|
2:34 2:36
-----------------------------------------------------------|-----------------------------------------------------------|------------------------------------------------------PH~--|-14-12-10-12-10----10----------------10-12-14-9-10-12-9----|----------------14----14-12-10-12-14-----------------------|-----------------------------------------------------------|
2:36 2:41
------------------------------------------------------------14-16/19-17-15-|----__-----------------------------------__--------------15----------------|---/ \---12/17-16----------/19-17-16---/ \--9/14----16-------------------|-10-14-10----------17-16-17------------7-11-7------17----------------------|---------------------------------------------------------------------------|---------------------------------------------------------------------------|
Riff 5 repeats 1 time 2:41-2:50 Riff 8 (2lines) 2:50-3:00
--------------------------------------------------------------------------------------------|------------------------__-------------------------------------------------__----------14|17|------___________------/ \----T---^----T---^----T-------___________------/ \---14-16|-----|-----/ \---10-12-14-17-10-12-16-10-12-17------/ \---12-14-16------------|10-12-14-12-10-12-14-------------------------------12-14-16-14-12-14-16---------------------|10-------------------------------------------------12---------------------------------------|
----------------------------------------------------------------|----------------------------------------------------------------|-----4-4-4-4-----2-2-2-2-------------4-4-4-4-4-4-5-5-5-5-7-7-7--|-----5-5-5-5-2-2-4-4-4-4-4-4-4-------5-5-5-5-5-5-7-7-7-7-9-9-9--|2--2---------2-2---------5-5-5--2--2----------------------------|2--2----------------------------2--2----------------------------|
Riff 6 repeats 2 and 1/2 times 3:00-3:22
--------------------------------------------------|--------------------------------------------------|--------------------------------------------------|---let ring-______________________________________|-2------------------------------------------------|-2------------------------------------------------|
Riff 9 3:29-3:34
---------------------------------------------------------------|---------------------------------------------------------------|---------------------------------------------------------------|-2---------2---2----2----2---2--1-------1---1----1----1---1----|-2-*-2-----2-*-2--*-2----2-*-2--1-*-1---1-*-1--*-1----1-*-1----|---5-2-------5----5--------5------4-1-----4----4--------4------|
Riff 10 repeats 2 times 3:34-3:47
---------------------------------------------------------|---------------------------------------------------------|---------------------------------------------------------|-2-------2---2----22-2---2--1-------1---1----11-1---1----|-2-*-2---2-*-2--*-22-2-*-2--1-*-1---1-*-1--*-11-1-*-1----|---5-2-----5----5------5------4-1-----4----4------4------|
Riff 3 repeats 2 times 3:48-4:00 Riff 11 repeats 4 times 4:00-end
----------------------------------------------------------------------------|----------------------------------------------------------------------------|----------------------------------------------------------------------------|----------------------------------------------------------------------------|-9------------9-----------9-----------8------------8-----------8------------|----12--11--9---12--11--9---12--11--9----11--10--8---11--10--8---11--10--9--|
Please rate this tab:
x1.0