Confide - Zeal tab version 2

-------------------------------------------------------------

        ZEAL - Confide (Rythm Guitar/w Distortion)

-------------------------------------------------------------

Tabbed by: Tyler Fernandes
E-mail: tylerfernandes@live.com

TAB FOUND AT SONGSTERR.COM
For the timing and to listen to midi of this tab:
http://www.songsterr.com/a/wa/song?id=61296

(You had to pay for a subscription to print it, so I just typed it out instead :P)

Tuning: DROP C ( C-G-c-F-A-D )

TABLATURE LEGEND
************************

 _= Let the note ring.
 \= Slide down.

************************

D |----0--0--0--0--0--0--0--0----|A |----6--6--6--6--6--6--6--6----|F |----5--5--5--5--5--5--5--5----|c |----7--7--7--7--7--7--7--7----| REPEAT 16xG |----0--0--0--0--0--0--0--0----|C |------------------------------|
|------------------------------|------------------------------||------------------------------|------------------------------||------------------------------|------------------------------||----0_________________________|_______-----------------------||----0_________________________|_______-----------------------||----0_________________________|_______-----------------------|
|------------------------------||------------------------------||------------------------------||------------------------------||----0-0-0-0-0-0-0-0-0---------||----0-0-0-0-0-0-0-0-0---------|
|------------------------------|------------------------------||------------------------------|------------------------------||------------------------------|------------------------------| REPEAT 7x|-------------10-----------7___|____--------------------------||----8--0--0------7--7--8--8___|____--0--0--7--7-7-7-7-7--8---||----8--0--0-------------------|------0--0--7-----------------|
|------------------------------|------------------------------||------------------------------|------------------------------||------------------------------|------------------------------||-------------10-----------7___|____---7--7--7--7--7--7-------||----8--0--0------7--7--8--8___|____---7--7--7--7--7--7-------||----8--0--0-------------------|-------7--7--7--7--7--7--0----|
|------------------------------|------------------------------||------------------------------|------------------------------||------------------------------|------------------------------||---10-10-10-10-10-10-10-10----|---10-10-10-10--7--7--7--7----||----8--8--8--8--8--8--8--8----|----8--8--8--8--8--8--8--8----||----8--8--8--8--8--8--8--8----|----8--8--8--8--7--7--7--7----|
|------------------------------|------------------------------||------------------------------|------------------------------||------------------------------|------------------------------||----7--7--7--7-10_10\---------|----------7_____-7--0--7------||----8--8--8--8-10_10\----0____|____---0--8_____-7--0--7------||----7--7--7--7-10_10\----0____|____---0---------7--0--7------|
|------------------------------|------------------------------||------------------------------|------------------------------||------------------------------|------------------------------||-----------------10\----------|----------7_____-7--0--7------||----7-7-7-7-7--8-10\-------0__|____---0--8_____-7--0--7------||-----------------10\-------0__|____---0---------7--0--7------|
|------------------------------||------------------------------||------------------------------||-----------------10-10-10-10--||----7-7-7-7-7--8--8--8--8--8--||------------------8--8--8--8--|
|------------------------------||------------------------------||------------------------------||---10-10-10-10-10-10-10-10----||----8--8--8--8--8--8--8--8----||----8--8--8--8--8--8--8--8----|
|------------------------------||------------------------------||------------------------------||----7--7--7--7--7--7--7--7----||----7--7--7--7--7--7--7--7----||----7--7--7--7--7--7--7--7----|
|------------------------------|------------------------------||------------------------------|------------------------------||------------------------------|------------------------------| REPEAT 1x|---10\------------7___________|____---7--0--7----------------||---10\----0----0--8___________|____---7--0--7--7-7-7-7-7--8--||---10\----0----0--------------|-------7--0--7----------------|
|------------------------------||------------------------------||------------------------------||---10-10-10-10-10-10-10-10----||----8--8--8--8--8--8--8--8----||----8--8--8--8--8--8--8--8----|
|------------------------------||------------------------------||------------------------------||---10-10-10-10--7--7--7--7----||----8--8--8--8--7--7--7--7----||----8--8--8--8--7--7--7--7----|
|------------------------------||------------------------------||------------------------------||----7-10-10-------------------||----7--8--8-------------------||----7--8--8-------------------|
|----0--0--0--0--0--0--0--0----||----6--6--6--6--6--6--6--6----||----5--5--5--5--5--5--5--5----| REPEAT 8x|----7--7--7--7--7--7--7--7----||----0--0--0--0--0--0--0--0----||------------------------------|
|----0-------------------------||----6-------------------------||----5-------------------------| Repeat 4x|----7-------------------------||----0-------------------------||------------------------------|
|------------------------------|------------------------------||------------------------------|------------------------------||------------------------------|------------------------------| REPEAT 4x|------------------------------|------------------------------||----0--------------------0----|----0-------------------------||----0--------------------0----|----0-------------------------|
|------------------------------||------------------------------||------------------------------||---10-10-10-10-10-10-10-10----||----8--8--8--8--8--8--8--8----||----8--8--8--8--8--8--8--8----|
|------------------------------||------------------------------||------------------------------||---10-10-10-10--7--7--7--7----||----8--8--8--8--8--8--8--8----||----8--8--8--8--7--7--7--7----|
|------------------------------|------------------------------||------------------------------|------------------------------||------------------------------|------------------------------||----7--7--7--7-10_10\---------|----------7_____-7--0--7------||----8--8--8--8-10_10\----0____|____---0--8_____-7--0--7------||----7--7--7--7-10_10\----0____|____---0---------7--0--7------|
|------------------------------|------------------------------||------------------------------|------------------------------||------------------------------|------------------------------||-----------------10\----------|----------7_____-7--0--7------||----7-7-7-7-7--8-10\-------0__|____---0--8_____-7--0--7------||-----------------10\-------0__|____---0---------7--0--7------|
|------------------------------||------------------------------||------------------------------||-----------------10-10-10-10--||----7-7-7-7-7--8--8--8--8--8--||------------------8--8--8--8--|
|------------------------------||------------------------------||------------------------------||---10-10-10-10-10-10-10-10----||----8--8--8--8--8--8--8--8----||----8--8--8--8--8--8--8--8----|
|------------------------------||------------------------------||------------------------------||----7--7--7--7--7--7--7--7----||----7--7--7--7--7--7--7--7----||----7--7--7--7--7--7--7--7----|
|------------------------------|------------------------------||------------------------------|------------------------------||------------------------------|------------------------------| REPEAT 1x|---10\------------7___________|____---7--0--7----------------||---10\----0----0--8___________|____---7--0--7--7-7-7-7-7--8--||---10\----0----0--------------|-------7--0--7----------------|
|------------------------------||------------------------------||------------------------------||---10-10-10-10-10-10-10-10----||----8--8--8--8--8--8--8--8----||----8--8--8--8--8--8--8--8----|
|------------------------------||------------------------------||------------------------------||---10-10-10-10--7--7--7--7----||----8--8--8--8--7--7--7--7----||----8--8--8--8--7--7--7--7----|
|------------------------------||------------------------------||------------------------------||----7--7--7--7-10-------------||----7--7--7--7-10-------------||----7--7--7--7-10-------------|
|----0--0--0--0--0--0--0--0----||----6--6--6--6--6--6--6--6----||----5--5--5--5--5--5--5--5----||----7--7--7--7--7--7--7--7----| REPEAT 16x|----0--0--0--0--0--0--0--0----||------------------------------|
|----0_________________________|____--------------------------||----6_________________________|____--------------------------||----5_________________________|____--------------------------||----7_________________________|____--------------------------||----0_________________________|____--------------------------||------------------------------|------------------------------|
Tap to rate this tab
 
# A B C D E F G H I J K L M N O P Q R S T U V W X Y Z