Conquest - Frozen Sky tab version 2

Conquest - Frozen Sky
If u are gonna use this tab or post somewhere else credit me as tabber
also would i like to ask someone who knows his way around more on Guitar Pro to tab it 
out in that format. I like Guitar pro tabs alot more.

Tuning: D G C F A D

(1)|--171614-----------------------------||14------1714--14-12--17--14-1514-----||-----------------16-------------14---||----------------------------------16-||-------------------------------------||-------------------------------------|
|--171614----------------------||14------1714--14-12--17---14--||-----------------16-----16----||------------------------------||------------------------------||------------------------------|
|--171614-----------------------------||14------1714--14-12--17--14-1514-----||-----------------16-------------14---||----------------------------------16-||-------------------------------------||-------------------------------------|
|--171614----------------1414--||14------1714--14-12--17-------||------------------------------||------------------------------||------------------------------||------------------------------|
2
|----------------------------------||----------------------------------||----------------------------------||------7--6----------7--6----------||4-4-7-5--4-7-6--4-7-5-----4--7--5-||2-2-5------5-4--2-5------5--3-----|
(2)|----------------------------------------------------||----------------------------------------------------||----------------------------------------------------||11------------------------8-------------------------||-9-9-9-9-9-9-9-9-9-9-9-9--6-6-6-6-6-6-6-6-6-6-6-6---||----------------------------------------------------|
|-----------------------------------------------------||-----------------------------------------------------||-----------------------------------------------------||-7-----------------------11--------------------------||-5-5-5-5-5-5-5-5-5-5-5-5--9-9-9-9-9-9-9-9-9-9-9-9----||-----------------------------------------------------|
|------------------------------||------------------------------||------------------------------||--7-----9--11--9--------------||--5--9--7---9--7--7-9--7--6---||-----7------------5-7--5--4---|
2
|------------------------------||------------------------------||------------------------------||--7--6-----9-11---------------||--5--4--9--7--9--7--9--10--11-||--------7--------5--7---8---9-|
(1)Refrain
|--------------------------------------||--------------------------------------||--------------------------------------||------7--6-----------7---6------------||4-4-7-5--4--7-6--4-7-5---4---7--5-----||2-2-5-------5-4--2-5---------5--3-----|
(2)Refrain
|--------------------------------------------||--------------------------------------------||--------------------------------------------||--7--6------9-11----------------------------||--5--4---9--7--9--7--9-10--11--11-13-14-15--||---------7--------5--7--8---9---9-11-12-13--|
|---------------------------------------------------||---------------------------------------------------||---------------------------------------------------||11-------------------------------------------------||-9-9-9-9-9-9-9-9-9-9-9-9-9-------------------------||-------------------------7-7-7-7-7-7-7-7-7-7-7-7---|
|--------------------------------------------------||--------------------------------------------------||--------------------------------------------------||9-------------------------------------------------||7-7-7-7-7-7-7-7-7-7-7-7-7-------------------------||------------------------5-5-5-5-5-5-5-5-5-5-5-5---|
|-----------------------------------------------------||-----------------------------------------------------||-----------------------------------------------------||7------------------------8---------------------------||5-5-5-5-5-5-5-5-5-5-5-5--6-6-6-6-6-6-6-6-6-6-6-6-----||-----------------------------------------------------|
|------------------------------------------------------||------------------------------------------------------||------------------------------------------------------||9------------------------10---------------------------||7-7-7-7-7-7-7-7-7-7-7-7---8-8-8-8-8-8-8-8-8-8-8-8-----||------------------------------------------------------|
|---------------------------------------------------||---------------------------------------------------||---------------------------------------------------||11-------------------------------------------------||-9-9-9-9-9-9-9-9-9-9-9-9-9-------------------------||-------------------------7-7-7-7-7-7-7-7-7-7-7-7---|
|---------------------------||---------------------------||---------------------------||--9------------------------||--7------6-----7-----------||---------4-----5-----------|
|-------------------------------------------------------------------------||-------------------------------------------------------------------------||-------------------------------------------------------------------------||-------------------------------------------------------------------------||-2-2-2-2-2-2-2-2-2-2-2-2-2-2-2-2-2-2-4-4-4-4-4-4-4-4-4-4-4-4-4-4-4-4-4-4-||-------------------------------------------------------------------------|
|-------------------------------------------------------------------------||-------------------------------------------------------------------------||-------------------------------------------------------------------------||-------------------------------------------------------------------------||-5-5-5-5-5-5-5-5-5-5-5-5-5-5-5-5-5-5-7-7-7-7-7-7-7-7-7-7-7-7-7-7-7-7-7-7-||-------------------------------------------------------------------------|
|-------------------------------------||-------------------------------------||-------------------------------------||------7--6-----------7--6------------||4-4-7-5--4--7-6--4-7-5--4---7--5-----||2-2-5-------5-4--2-5--------5--3-----|
solo
|---------------------------------------------------||---------------------------------------------------||---------------------------18-19-18--------18--16--||--16-18-19-18---------16-19---------19-16----------||16-----------19-16---------------------------------||---------------------------------------------------|
|-----------------------------------------------||-------------------17--------------------------||--16---------18-19---19-18---------------------||19--19-18------------------19--16--19-16-19----||---------19------------------------------------||-----------------------------------------------|
|---------------------------------------||---------------------------------------||18-16--------18-19-18------------------||------16-19----------19-16-------------||---------------------------------------||---------------------------------------|
|-----16-17-16-------------------------------------------------||---17---------17----------------------------------------------||18--------------16-18-----------------------16-18-19-16-18-19-||----------------------19---16-18-19-16-18-19------------------||--------------------------------------------------------------||--------------------------------------------------------------|
|-----16-17-21----19---17--17-21-19------------||17-19-------------------19--------------------||----------------------------------------------||----------------------------------------------||----------------------------------------------||----------------------------------------------|
|----------------------------------------||----------------------------------------||----------------------------------------||--7--6-----9-11-------------------------||--5--4--9--7--9--7----9-------10---11---||--------7--------5----7--------8----9---|
(1) Refrain
|--181715----------------------------------||15------1815--15-13--18----15-1615--------||------------------------17--------15------||------------------------------------17----||------------------------------------------||------------------------------------------|
|--181715-------------------------------||15------1815--15-13--18---15-----------||------------------------17-------------||---------------------------------------||---------------------------------------||---------------------------------------|
|--181715----------------------------------||15------1815--15-13--18---15-1615---------||------------------------17-------15-------||-----------------------------------17-----||------------------------------------------||------------------------------------------|
|--181715----------------15--17----17--18--20---||15------1815--15-13--18---------15--15--15-----||-----------------------------------------------||-----------------------------------------------||-----------------------------------------------||-----------------------------------------------|
(3)|------------------------------------------------------------------||------------------------------------------------------------------||------------------------------------------------------------------||12----------------------------------------------------------------||10-10-10-10-10-10-10-10-10-10-10-10------10-----------------------||------------------------------------------8-8-8-8-8-8-8-8-8-8-8-8-|
|---------------------------------------------------------||---------------------------------------------------------||---------------------------------------------------------||10-------------------------------------------------------||-8-8-8-8-8-8-8-8-8-8-8-8------8--------------------------||------------------------------6-6-6-6-6-6-6-6-6-6-6-6----|
|-----------------------------------------------------||-----------------------------------------------------||-----------------------------------------------------||8------------------------9---------------------------||6-6-6-6-6-6-6-6-6-6-6-6--7-7-7-7-7-7-7-7-7-7-7-7-----||-----------------------------------------------------|
|-------------------------------------------------------||-------------------------------------------------------||-------------------------------------------------------||10------------------------11---------------------------||-8-8-8-8-8-8-8-8-8-8-8-8---9-9-9-9-9-9-9-9-9-9-9-9-----||-------------------------------------------------------|
|------------------------------------------------------------------||------------------------------------------------------------------||------------------------------------------------------------------||12----------------------------------------------------------------||10-10-10-10-10-10-10-10-10-10-10-10------10-----------------------||------------------------------------------8-8-8-8-8-8-8-8-8-8-8-8-|
|------------------------------||------------------------------||------------------------------||--10--------------------------||---8------7-----8-------------||----------5-----6-------------|
|-------------------------------------------------------------------------||-------------------------------------------------------------------------||-------------------------------------------------------------------------||-------------------------------------------------------------------------||-3-3-3-3-3-3-3-3-3-3-3-3-3-3-3-3-3-3-5-5-5-5-5-5-5-5-5-5-5-5-5-5-5-5-5-5-||-------------------------------------------------------------------------|
(3) Refrain|-------------------------------------------------------------------------||-------------------------------------------------------------------------||-------------------------------------------------------------------------||-------------------------------------------------------------------------||-3-3-3-3-3-3-3-3-3-3-3-3-3-3-3-3-3-3-5-5-5-5-5-5-5-5-5-5-5-5-5-5-5-5-5-5-||-------------------------------------------------------------------------|
|-------------------------------------------------------------------------||-------------------------------------------------------------------------||-------------------------------------------------------------------------||-------------------------------------------------------------------------||-6-6-6-6-6-6-6-6-6-6-6-6-6-6-6-6-6-6-8-8-8-8-8-8-8-8-8-8-8-8-8-8-8-8-8-8-||-------------------------------------------------------------------------|
|----------------------------------||----------------------------------||----------------------------------||------8--7----------8--7----------||5-5-8-6--5-8-7--5-8-6--5-8--6-----||3-3-6------6-5--3-6------6--4-----|
---------------------------------||--------------------------------||--------------------------------||----8--7----------8--7----------||5-8-6--5-8-7--5-8-6--5-8--6-----||3-6------6-5--3-6------6--4-----|
|--------------------------||--------------------------||--------------------------||--------------------------||-6-6-6-6-5----------------||-4-4-4-4-3----------------|
Tabbed by Arystar Arystar.vliegen@gmail.com
Tap to rate this tab
 
# A B C D E F G H I J K L M N O P Q R S T U V W X Y Z