Control Denied – Expect The Unexpected tab

CONTROL DENIED - EXPECT THE UNEXPECTED
From the Album THE FRAGILE ART OF EXISTENCE

Transcribed by Eric Wilsevich (ew985@hotmail.com)

Email me if you have any questions, comments or if there are any errors.

Some of the riffs can be played at different positions on the neck. It
was easier to write some of them the way they are.


Tuning = D (D,G,C,F,A,D)

Riff 1A

|--------------|----------------|--------------|-------------||--------------|----------------|--------------|-------------||--------------|----------------|--------------|-------------||--------------|-3-7-6----------|--------------|3-7-6---3----||----------3-7-|-------7-3------|----------3-7-|------7------||-4----5-7-----|-----------7-5--|-4----5-7-----|-------------|
Riff 1B
|--------------|----------------|--------------|-------------||--------------|----------------|--------------|-------------||--------------|----------------|--------------|-------------|Gtr. 1|--------------|-3-7-6----------|--------------|3-7-6---3----||----------3-7-|-------7-3------|----------3-7-|------7------||-4----5-7-----|-----------7-5--|-4----5-7-----|-------------|
| | | | ||--------------|----------------|--------------|-------------||--------------|----------------|--------------|-------------||--------------|-5-9-8----------|--------------|5-9-8---5----|Gtr. 2|----------5-9-|-------9-5------|----------5-9-|------9------||-6----7-9-----|-----------9-7--|-6----7-9-----|-------------||--------------|----------------|--------------|-------------|
|--------------|----------------|--------------|-------------||--------------|----------------|--------------|-------------||--------------|----------------|--------------|-------------|Gtr. 1|--------------|-3-7-6----------|--------------|3-7-6---3----||----------3-7-|-------7-3------|----------3-7-|------7------||-4----5-7-----|-----------7-5--|-4----5-7-----|-------------|
| | | | ||--------------|----------------|--------------|-------------||--------------|-6-10-9---------|--------------|6-10-9---6---||----------5-9-|--------9-5-----|----------5-9-|-------9-----|Gtr. 2|-6----7-9-----|------------9-7-|-6----7-9-----|-------------||--------------|----------------|--------------|-------------||--------------|----------------|--------------|-------------|
Riff 2A
|-------------------|-------------------|-------------------||-------------------|-------------------|-------------------||-------------------|-------------------|-------------------||-------------------|-------------------|-------------------||-4-----4-----------|-4-----4-----------|-5-----5-----------||---222---2222-2222-|---222---2222-2222-|---333---3333-3333-|
|-------------------|----------------|----------------||-------------------|----------------|----------------||-------------------|----------------|----------------||-------------------|-2-----2--------|-2-----2--------||-5-----5-----------|-2-----2--------|-2--------------||---333---3333-3333-|---000------0-0-|---000----------|
|-------------------|-------------------||-------------------|-------------------||-------------------|-------------------||-------------------|-------------------||-5-----5-----------|-5-----5-----------||---333---3333-3333-|---333---3333-3333-|
Riff 2B
(Notes in brackets are Gtr. 2)|-------------------|-------------------|-------------------||-------------------|-------------------|-------------------||-------------------|-------------------|-------------------||(6)---(6)----------|(6)---(6)----------|(7)---(7)----------||-4-----4-----------|-4-----4-----------|-5-----5-----------||---222---2222-2222-|---222---2222-2222-|---333---3333-3333-|
|-------------------|----------------|----------------||-------------------|----------------|----------------||-------------------|----------------|----------------||(7)---(7)----------|-2-----2--------|-2-----2--------||-5-----5-----------|-2-----2--------|-2--------------||---333---3333-3333-|---000------0-0-|---000----------|
|-------------------|-------------------||-------------------|-------------------||-------------------|-------------------||-------------------|-------------------||-5-----5-----------|-5-----5-----------||---333---3333-3333-|---333---3333-3333-|
Riff 3
|--------------------------------------------------------------------------||--------------------------------------------------------------------------||--------------------------------------------------------------------------||-------------5-------------5-----------------------5-------------5------5-||-------------3-------------3-----------------------3-------------3------3-||-0000-0000-0---0000-0000-0---0000-5555-0000-0000-0---0000-0000-0---0000---|
Riff 4
|---------------------|---------------------|--------------------||---------------------|---------------------|--------------------||---------------------|------------------9--|--------------------||-----------771010-9--|-----------771010----|--------------------||-0000-0000-----------|-0000-0000-----------|-3333-3333-3333-3333||---------------------|---------------------|--------------------|
|---------------------|---------------------|---------------------||---------------------|---------------------|---------------------||---------------------|---------------------|------------------9--||---------------------|-----------771010-9--|-----------771010----||-5555-5555-5555-5555-|-0000-0000-----------|-0000-0000-----------||---------------------|---------------------|---------------------|
|---------------------|--------------||---------------------|--------------||---------------------|-------/9-----||---------------------|-9--------10--||-3333-3333-3333-3333-|-7-----/7-----||---------------------|-7---------8--|
Riff 5
|----------------|---------------||----------------|---------------||-------5--4-----|---------------||-2---2------5---|---4-5-----5-4-||---0------------|-------3-------||--------------5-|---------------| A.H. A.H.(Harmonics are not played every time)
Riff 6
|-------------|-------------||-------------|-------------||-------------|-------------||-------------|-------------||-2-2-2--2----|-2-2-2--2----||-0-0-0--0----|-0-0-0--0----|
Riff 7
|---------------------|------------------|---------------------||---------------------|------------------|---------------------||---------------------|------------------|---------------------||---------------------|---7-9---10-9-----|---------------------||---------------------|-7-----7------10--|---------------------||-0000-0000-0000-0000-|------------------|-0000-0000-0000-0000-|
|-------------|---------------------|------------------||-------------|---------------------|------------------||-------------|---------------------|------------------||-4--5--7--2--|---------------------|---7-9---10-9-----||-2--3--5--0--|---------------------|-7-----7------10--||-------------|-0000-0000-0000-0000-|------------------|
|---------------------|-------------||---------------------|-------------||---------------------|-------------||---------------------|-2--7--5--4--||---------------------|-0--5--3--2--||-0000-0000-0000-0000-|-------------|
Riff 8
|----------------------------------------------------------||----------------------------------------------------------||----------------------------------------------------------||----------------------------------------------------------||-6----------7------2------6----------7-----------2------2-||-4----------5------0------4----------5------0000-0-0000-0-|
Outro Riff 1A
|--------------|----------------|--------------|--------------||--------------|----------------|--------------|--------------||--------------|----------------|--------------|--------------|Gtr. 1|--------------|-3-7-6----------|--------------|-3-7-6---3----||----------3-7-|-------7-3------|----------3-7-|-------7------||-4----5-7-----|-----------7-5--|-4----5-7-----|--------------|
| | | | ||--------------|----------------|--------------|--------------||--------------|----------------|--------------|--------------||--------------|----------------|--------------|--------------|Gtr. 2|-6------------|----------------|-9------------|-10-----------||--------------|----------------|--------------|--------------||--------------|----------------|--------------|--------------|
|--------------|----------------|--------------|--------------||--------------|----------------|--------------|--------------||--------------|----------------|--------------|--------------|Gtr. 1|--------------|-3-7-6----------|--------------|-3-7-6---3----||----------3-7-|-------7-3------|----------3-7-|-------7------||-4----5-7-----|-----------7-5--|-4----5-7-----|--------------|
| | | | ||--------------|----------------|--------------|--------------||--------------|----------------|--------------|--------------||--------------|----------------|--------------|--------------|Gtr. 2|-6------------|----------------|-9------------|-10-------////|Slide up|--------------|----------------|--------------|--------------||--------------|----------------|--------------|--------------|
Outro Riff 1B|--------------|----------------|--------------|--------------||--------------|----------------|--------------|--------------||--------------|----------------|--------------|--------------|Gtr. 1|--------------|-3-7-6----------|--------------|-3-7-6---3----||----------3-7-|-------7-3------|----------3-7-|-------7------||-4----5-7-----|-----------7-5--|-4----5-7-----|--------------|
| | | | ||--------------|----------------|--------------|--------------||--------------|----------------|--------------|--------------||--------------|----------------|--------------|--------------|Gtr. 2|-6----6/7-7/9-|9/10-10\9-9\7-7-|-6----6/7-7/9-|9/10-10\9-9---||--------------|----------------|--------------|--------------||--------------|----------------|--------------|--------------|
Song Progression Riff 1A - play 2x Riff 1B - play 1x Riff 2A - play 1x Riff 2B - play 2x Riff 3 - play 6x Riff 4 - play 3x Riff 5 - play 8x Riff 6 - play 8x Riff 7 - play 3x Riff 8 - play 3x Riff 2A - play 1x Riff 2B - play 2x Riff 3 - play 6x Riff 4 - play 3x Riff 1A - play 2x Outro Riff 1A - 1x Outro Riff 1B - fades out
Please rate this tab:
x1.0