Converge - Concubine tab version 3

Converge - Dark Horse

Tuning - Drop C (C,G,C,F,A,D)

Intro:|---------------------------||---------------------------||---------------------------||---------------------------||--/5~~~~~~~~~~~~~~~~~~~----||---------------------------|
|----------------------------||----------------------------||----------------------------||---x\\\\\\\\\---------------||---x\\\\\\\\\-(pickslide)---||--12\\\\\\\\\---------------|
|----------------------------------------||----------------------------------------||-------14--9p0-10p0-12p0------10p0-9p7--| 8x|--12p0-------------------12p0-----------||----------------------------------------||----------------------------------------|
|-----------------------------------|------------------------------||-------15--------15--------15------|--------15--------15~~~~~~~~--||-----------------------------------|---12--------12---14~~~~~~~~--||--15--------15--------15-----------|------------------------------||-----------------------------------|------------------------------||-----------------------------------|------------------------------|
Verse:|----------------------------------------||----------------------------------------||-------14--9p0-10p0-12p0------10p0-9p7--| 8x|--12p0-------------------12p0-----------||----------------------------------------||----------------------------------------|
|-----------------------------------|------------------------------||-------15--------15--------15------|--------15--------15~~~~~~~~--||-----------------------------------|---12--------12---14~~~~~~~~--||--15--------15--------15-----------|------------------------------||-----------------------------------|------------------------------||-----------------------------------|------------------------------|
Chorus:|-------------------------|-------------------------||-------------------------|-------------------------||--7--7--7--7--7--7--10---|--6--6--6--6--6--6--8----||--7--7--7--7--7--7--10---|--6--6--6--6--6--6--8----||--5--5--5--5--5--5--8----|--4--4--4--4--4--4--6----||-------------------------|-------------------------|
-------------------------|-------------------------|-------------------------|-------------------------|--7--7--7--7--7--7--10---|--6--6--6--6--6--6--8----| x2--7--7--7--7--7--7--10---|--6--6--6--6--6--6--8----|--5--5--5--5--5--5--8----|--4--4--4--4--4--4--6----|-------------------------|--6--6--6--6--6--6-------|
|-----------------------------------|------------------------------||-------15--------15--------15------|--------15--------15~~~~~~~~--||-----------------------------------|---12--------12---14~~~~~~~~--||--15--------15--------15-----------|------------------------------||-----------------------------------|------------------------------||-----------------------------------|------------------------------|
Verse 2:|----------------------------------------||----------------------------------------||-------14--9p0-10p0-12p0------10p0-9p7--| 8x|--12p0-------------------12p0-----------||----------------------------------------||----------------------------------------|
|-----------------------------------|------------------------------||-------15--------15--------15------|--------15--------15~~~~~~~~--||-----------------------------------|---12--------12---14~~~~~~~~--||--15--------15--------15-----------|------------------------------||-----------------------------------|------------------------------||-----------------------------------|------------------------------|
Chorus 2:|-------------------------|-------------------------||-------------------------|-------------------------||--7--7--7--7--7--7--10---|--6--6--6--6--6--6--8----||--7--7--7--7--7--7--10---|--6--6--6--6--6--6--8----||--5--5--5--5--5--5--8----|--4--4--4--4--4--4--6----||-------------------------|-------------------------|
-------------------------|-------------------------|-------------------------|-------------------------|--7--7--7--7--7--7--10---|--6--6--6--6--6--6--8----| x2--7--7--7--7--7--7--10---|--6--6--6--6--6--6--8----|--5--5--5--5--5--5--8----|--4--4--4--4--4--4--6----|-------------------------|--6--6--6--6--6--6-------|
|-----------------------------------|------------------------------||-------15--------15--------15------|--------15--------15~~~~~~~~--||-----------------------------------|---12--------12---14~~~~~~~~--||--15--------15--------15-----------|------------------------------||-----------------------------------|------------------------------||-----------------------------------|------------------------------|
Bridge I|-------------------------|-------------------------||-11-11-11-11-11-11-11-11-|-------------------------||-13----13-13-13-13-13-13-|-14-14-14-14-14-14-14-14-||-------------------------|-------------------------||-------------------------|-------------------------||-------------------------|-------------------------|
|-------------------------|-----------------||-------------------------|-----------------||-11-11-11-11-11-11-11-11-|-8-8-8-8-8-8-8-8-||-------------------------|-----------------||-------------------------|-----------------||-------------------------|-----------------|
|-------------------------|-------------------------||-11-11-11-11-11-11-11-11-|-------------------------||-13-13-13-13-13-13-13-13-|-14-14-14-14-14-14-14-14-||-------------------------|-------------------------||-------------------------|-------------------------||-------------------------|-------------------------|
|-------------------------|-----------------||-------------------------|-----------------||-11-11-11-11-11-11-11-11-|-8-8-8-8-8-8-8-8-||-------------------------|-----------------||-------------------------|-----------------||-------------------------|-----------------|
Bridge II|-------------------|------------------||-------------------|------------------||--7-7-7-7-7-7-5-7--|-8-8-8-8-8-8-7-8--||-------------------|------------------||-------------------|------------------|
|--------------------------|---------------------------||--------------------------|---------------------------||--10-10-10-10-10-10-8-10--|--12-12-12-12-12-12-10-12--||--------------------------|---------------------------||--------------------------|---------------------------||--------------------------|---------------------------|
|---------------------------|---------------------------||---------------------------|---------------------------||--14-14-14-14-14-14-12-14--|--15-15-15-15-15-15-14-15--||---------------------------|---------------------------||---------------------------|---------------------------||---------------------------|---------------------------|
|---------------------------|------------------------------||---------------------------|------------------------------||--17-17-17-17-17-17-15/19--|--19-19-19-19-19-19-----------||---------------------------|----------------------x\\\\\--||---------------------------|----------------------x\\\\\--||---------------------------|---------------------20\\\\\--|
Breakdown:|------------------|-----------------|------------------|---------------------||------------------|-----------------|------------------|---------------------||--7-------7---10--|--6-------6---8--|--7-------7---10--|--6-6------6-6-------| 4x|--7-------7---10--|--6-------6---8--|--7-------7---10--|--6-6------6-6-------||--5---0-0-5-0-8---|--4---0-0-4-0-6--|--5---0-0-5-0-8---|--6-6-0000-6-6-0000--||------0-0---0-----|------0-0---0----|------0-0---0-----|------0000-----0000--|
|--0~~~~~--||--0~~~~~--||--0~~~~~--||--0~~~~~--||--0~~~~~--||--0~~~~~--|
Verse 3:|----------------------------------------||----------------------------------------||-------14--9p0-10p0-12p0------10p0-9p7--| 8x|--12p0-------------------12p0-----------||----------------------------------------||----------------------------------------|
|-----------------------------------|------------------------------||-------15--------15--------15------|--------15--------15~~~~~~~~--||-----------------------------------|---12--------12---14~~~~~~~~--||--15--------15--------15-----------|------------------------------||-----------------------------------|------------------------------||-----------------------------------|------------------------------|
Chorus 3:|-------------------------|-------------------------||-------------------------|-------------------------||--7--7--7--7--7--7--10---|--6--6--6--6--6--6--8----||--7--7--7--7--7--7--10---|--6--6--6--6--6--6--8----||--5--5--5--5--5--5--8----|--4--4--4--4--4--4--6----||-------------------------|-------------------------|
-------------------------|-------------------------|-------------------------|-------------------------|--7--7--7--7--7--7--10---|--6--6--6--6--6--6--8----| x2--7--7--7--7--7--7--10---|--6--6--6--6--6--6--8----|--5--5--5--5--5--5--8----|--4--4--4--4--4--4--6----|-------------------------|--6--6--6--6--6--6-------|
|-----------------------------------|-------------------------------||-------15--------15--------15------|--------15--------15~~~~~~~~\--||-----------------------------------|---12--------12---14~~~~~~~~\--||--15--------15--------15-----------|-------------------------------||-----------------------------------|-------------------------------||-----------------------------------|-------------------------------|
Tap to rate this tab
 
# A B C D E F G H I J K L M N O P Q R S T U V W X Y Z