Corrosion Of Conformity – Senor Limpio tab ver. 2

Tab by J. Ryan Napier 
aka "Parricide" aka "The Southern Dandy" 
aka "'The Total Package' Big Sexy"

Seรฑor Limpio - Corrosion of Conformity
Album - Deliverance

----------------
Key

* Pinch Harmonic
~ Vibrato
h Hammer On
p Pull Off
. Palm Mute
// Slide Up
\\ Slide Down
b Bend
r Release
x Muted Note
( ) Ringing Note
----------------


Since this site pretty much taught me how to play guitar, I thought I should
contribute. So, here is my first tab, sans solo.  I chose to tab this song
because I couldn't find an acceptable version online. Huzzah for COC and
huzzah for metal!


Intro|-------------------------------------------------------||-------------------------------------------------------||-------------------------------------------------------||-------------------------------------------------------||--------------5b---------------------------------------||--0--0-0-3b-0----0-6-5----0--0-0-3b-0-0----0//17\\0----| . . . .
Verse
"Busted flat and dusted, boy, your mind's a terrible thing,"|-------------------------------------------------------||-------------------------------------------------------||-------------------------------------------------------||-------------------------------------------------------||--------------5b---------------------------------------||--0--0-0-3b-0----0-6-5----0--0-0-3b-0-0---0-3-0-3*b----| . . . . . . . .
|-------------------------------------------------------||-------------------------------------------------------||-------------------------------------------------------||-------------------------------------------------------||--------------5b---------------------------------------||--0--0-0-3b-0----0-6-5----0--0-0-3b-0-0----------------| . . . . .
|-------------------------------------------------------||-------------------------------------------------------||-------------------------------------------------------||-------------------------------------------------------||--------------5b---------------------------------------||--0--0-0-3b-0----0-6-5----0--0-0-3b-0-0---0-3-0-3*b----| . . . . . . .
|-------------------------------------------------------||-------------------------------------------------------||-------------------------------------------------------||-------------------------------------------------------||--------------5b---------------------------------------||--0--0-0-3b-0----0-6-5----0--0-0-3b-0-0----------------| . . . . .
Bridge (Light Palm Muting)
|-------------------------------------------------------||-------------------------------------------------------||-------------------------------------------------------||--0h2-2-2--0h2-2--0-2-5----0h2-2--0-2-2-2-0------------||--------------------------------------------2-0--------||------------------------------------------------5-3~~--| . . . . . . . . . . . . . .
|-------------------------------------------------------||-------------------------------------------------------||----------------------------------------2*~-0-2--------||--0h2-2-2--0h2-2--0-2-5----0h2-2--0-2-0---------5*~----||-------------------------------------------------------||-------------------------------------------------------| . . . . . . . . .
"Dirty king"|-------------------------------------------------------||-------------------------------------------------------||-------------------------------------------------------||--0h2-2-2--0h2-2--0-2-5----0h2-2--0-2-2-2-0------------||--------------------------------------------2-0--------||------------------------------------------------5-3~~--| . . . . . . . . . . . . . .
|-------------------------------------------------------||---------------------------------------------3b5r------||----------------------------------------5*b------------||--0h2-2-2--0h2-2--0-2-5----0h2-2--0-2-0----------------||-------------------------------------------------------||-------------------------------------------------------| . . . . . . . . .
Verse
|-------------------------------------------------------||-------------------------------------------------------||-------------------------------------------------------||-------------------------------------------------------||--------------5b---------------------------------------||---0--0-0-3b-0----0-6-5----0--0-0-3b-0-0---0-3-0-3*b---| . . . . . . . .
|-------------------------------------------------------||-------------------------------------------------------||-------------------------------------------------------||------------------------------------------2-2-2--------||--------------5b--------------------------2-2-2--------||--0--0-0-3b-0----0-6-5----0--0-0-3b-0-0---0-0-0--------| . . . . . . . .
|-------------------------------------------------------||-------------------------------------------------------||-------------------------------------------------------||-------------------------------------------------------||--------------5b---------------------------------------||--0--0-0-3b-0----0-6-5----0--0-0-3b-0-0---0-3-0-3*b----| . . . . . . .
|-------------------------------------------------------||-------------------------------------------------------||-------------------------------------------------------||-------------------------------------------------------||--------------5b---------------------------------------||--0--0-0-3b-0----0-6-5----0--0-0-3b-0-0----------------| . . . . .
Pre-Chorus Bridge (Light Palm Muting)
|-------------------------------------------------------||-------------------------------------------------------||-------------------------------------------------------||--0h2-2-2--0h2-2--0-2-5----0h2-2--0-2-2-2-0------------||--------------------------------------------2-0--------||------------------------------------------------5-3~~--| . . . . . . . . . . . . . .
|-------------------------------------------------------||-------------------------------------------------------||----------------------------------------2*~-0-2--------||--0h2-2-2--0h2-2--0-2-5----0h2-2--0-2-0---------5*~----||-------------------------------------------------------||-------------------------------------------------------| . . . . . . . . .
|-------------------------------------------------------||-------------------------------------------------------||-------------------------------------------------------||--0h2-2-2--0h2-2--0-2-5----0h2-2--0-2-2-2-0------------||--------------------------------------------2-0--------||------------------------------------------------5-3~~--| . . . . . . . . . . . . . .
|-------------------------------------------------------||-------------------------------------------------------||-------------------------------------------------------||--0h2-2-2--0h2-2--0-2-5----0h2-2--7~~~-----------------||-------------------------------------------------------||-------------------------------------------------------| . . . . . . . . .
|-------------------------------------------------------||-------------------------------------------------------||-------------------------------------------------------||--0h2-2-2--0h2-2--0-2-5----0h2-2--0-2-2-2-0------------||--------------------------------------------2-0--------||------------------------------------------------5-3~~--| . . . . . . . . . . . . . .
|-------------------------------------------------------||-------------------------------------------------------||-------------------------------------------------------||--0h2-2-2--0h2-2--0-2-5----0h2-2--0-2-0-2p0------------||--------------------------------------------2-0--------||------------------------------------------------5-3~~--| . . . . . . . . .
Chorus
"But I want to! I want to!"|-------------------------------------------------------||-------------------------------------------------------||-------------------------------------------------------||---7-7----7-7b--7----7-7b--5----7-7b--5--5-------------||---7-7----7-7b--7----7-7b--5----7-7b--5--5-------------||---5-5----5-5b--5----5-5b--3----5-5b--3--3~------------|
|-------------------------------------------------------||-------------------------------------------------------||-------------------------------------------------------||---2-2-2--5----2-2-2--5---2-2-2--5----8--7--6----------||---2-2-2--5----2-2-2--5---2-2-2--5----8--7--6----------||---0-0-0--3----0-0-0--3---0-0-0--3----6--5--4----------| . . . . . . . . .
(2x) (SCENE MISSING) Back To Verse
|-------------------------------------------------------||-------------------------------------------------------||-------------------------------------------------------||-------------------------------------------------------||--------------5b---------------------------------------||--0--0-0-3b-0----0-6-5----0--0-0-3b-0-0---0-3-0-3*b----| . . . . . . .
|-------------------------------------------------------||-------------------------------------------------------||-------------------------------------------------------||-------------------------------------------------------||--------------5b---------------------------------------||--0--0-0-3b-0----0-6-5----0--0-0-3b-0-0----------------| . . . . .
Pre-Chorus Bridge Again (Light Palm Muting)
|-------------------------------------------------------||-------------------------------------------------------||-------------------------------------------------------||--0h2-2-2--0h2-2--0-2-5----0h2-2--0-2-2-2-0------------||--------------------------------------------2-0--------||------------------------------------------------5-3~~--| . . . . . . . . . . . . . .
|-------------------------------------------------------||-------------------------------------------------------||----------------------------------------2*~-0-2--------||--0h2-2-2--0h2-2--0-2-5----0h2-2--0-2-0---------5*~----||-------------------------------------------------------||-------------------------------------------------------| . . . . . . . . .
|-------------------------------------------------------||-------------------------------------------------------||-------------------------------------------------------||--0h2-2-2--0h2-2--0-2-5----0h2-2--0-2-2-2-0------------||--------------------------------------------2-0--------||------------------------------------------------5-3~~--| . . . . . . . . . . . . . .
|-------------------------------------------------------||-------------------------------------------------------||-------------------------------------------------------||--0h2-2-2--0h2-2--0-2-5----0h2-2--7~~~-----------------||-------------------------------------------------------||-------------------------------------------------------| . . . . . .
|-------------------------------------------------------||-------------------------------------------------------||-------------------------------------------------------||--0h2-2-2--0h2-2--0-2-5----0h2-2--0-2-2-2-0------------||--------------------------------------------2-0--------||------------------------------------------------5-3~~--| . . . . . . . . . . . . . .
|-------------------------------------------------------||-------------------------------------------------------||-------------------------------------------------------||--0h2-2-2--0h2-2--0-2-5----0h2-2--0-2-0-2p0------------||--------------------------------------------2-0--------||------------------------------------------------5-3~~--| . . . . . . . . .
Last Chorus
|-------------------------------------------------------||-------------------------------------------------------||-------------------------------------------------------||---7-7----7-7b--7----7-7b--5----7-7b--5--5-------------||---7-7----7-7b--7----7-7b--5----7-7b--5--5-------------||---5-5----5-5b--5----5-5b--3----5-5b--3--3~------------|
|-------------------------------------------------------||-------------------------------------------------------||-------------------------------------------------------||---2-2-2--5----2-2-2--5---2-2-2--5----8--7--6----------||---2-2-2--5----2-2-2--5---2-2-2--5----8--7--6----------||---0-0-0--3----0-0-0--3---0-0-0--3----6--5--4----------| . . . . . . . . .
(2x)
"Your soul in a bottle of dope!"|-------------------------------------------------------||-------------------------------------------------------||-------------------------------------------------------||-------------------------------------------------------||--------------5b---------------------------------------||--0--0-0-3b-0----0-6-5----0--0-0-3b-0-0----------------| . . . . .
Please rate this tab:
x1.0