Crack The Sky - Hot Razors In My Heart tab

From: paulr@umbc4.umbc.edu (Paul Riddle)
Subject: TAB: "Hot Razors in My Heart" (Crack The Sky)

Anyone else out there into Crack?  This is a transcription of what was
probably their biggest song, plus bass and keyboard lines, minus the
solo, which I haven't gotten around to writing out.  Just thought I'd
send along what I had.

Also, if anyone feels like submitting some Tom Petty, please do so...
Anyone know "We're all right for now" off of Full Moon Fever?

Paul

------------
"Hot Razors in my Heart"
Crack The Sky

Notation:
/ = Slide
# = Sharp
b = Flat
m = Minor
- = Hold previous note for this measure
| = Rest
v = Downstroke
^ = Upstroke
x = Mute string

Chords are major unless otherwise indicated

Basic chord progression Em-C-D-Bm

Fig. 1

Lead Guitar

Em C D Bm1-----------------------------------2--------2-----|2-----------0--------1-----------3--------------3--|3--------0--------------0-----2--------------------|4-----2-----------2--------0--------------2--------|5--------------3-----------------------2-----------|6--0-----------------------------------------------|
Hot, Hot Razors In My... Bass Guitar
1--------------------------------------------------|2--------------------------------------------------|3-------/7-----------7-----5-----------------5-----|4--0--------7--8--------------------5--7--------7--|
Keyboard (start with G above middle C) G F# E D C - E - D - - B F# - E D Fig. 2 Lead Guitar: None Bass Guitar (Slap)
Em1--------------------------|2--------------------------|3--------------------------|4--0--0--|--0--0--|--|--|--|
Keyboard: None Fig. 3 Lead Guitar:
B C1--------------------------------------------------|2-----------3--------3--------------5--------5-----|3--3-----3--------3-----3--5-----5--------5-----5--|4--3-----------------------5-----------------------|5--2-----------------------3-----------------------|6--------------------------------------------------|
B C D1--------------------------------------------------|2-----------3--------3-----------5-----------------|3--3-----3--------3-----3--5--------5--7--7--7-----|4--3-----------------------5--5--------5--5--5-----|5--2-----------------------3-----------5--5--5-----|6--------------------------------------------------|
Bass Guitar:
1--------------------------------------------------|2--------------------------------------------------|3--2-----2-----------2--2--3-----3-----------------|4--------------------------------------------------|
1--------------------------------------------------|2-----------1-----2-----4--------2-----0-----4--0--|3--2-----------------------3--------3--------------|4--------------------------------------------------|
Keyboard: (Start with B just below middle C) B - - - - - - - C - - - - D E - B - - - - - - - C - - - D - - - Fig. 4 Bass Guitar: Doubles Fig. 2 all the way through Lead Guitar:
1--------------------------------------------------|2--------------------------------------------------|3--------------------------------------------------|4--------------------------------------------------|5--------------------------------------------------|6--0--0--|--0--0--|--|--|--0--0--|--0--0--|--|--|--|
E
1--------------------------------------------------|2--------------------------------------------------|3--9--9--|--9--9--|--|--|--7--7--|--7--7--|--|--|--|4--9--9-----9--9-----------7--7-----7--7-----------|5--7--7-----7--7-----------5--5-----5--5-----------|6--------------------------------------------------|
1--------------------------------------------|2--------------------------------------------|3--9--9--|--9--9--|--7777-/9--9--|--9--9--|--|4--9--9-----9--9-----7777-/9--9-----9--9-----|5--7--7-----7--7-----5555-/7--7-----7--7-----|6--------------------------------------------| v^v^
1-----------------------------------------------|2-----------------------------------------------|3--7777-/9--9--|--9--9--|--|--|--7--7--|--7--7--|4--7777-/9--9-----9--9-----------7--7-----7--7--|5--5555-/7--7-----7--7-----------5--5-----5--5--|6-----------------------------------------------| v^v^
1---------------------------------------------------|2---------------------------------------------------|3--9--9--|--9--9--|--7777-/9--9--|--9--9--xx-xx-xx--|4--9--9-----9--9-----7777-/9--9-----9--9--xx-xx-xx--|5--7--7-----7--7-----5555-/7--7-----7--7--xx-xx-xx--|6---------------------------------------------------| v^v^ v^ v^ v^
Keyboard: None THE SONG: (Numbers represent Fig. #s above) TAB above shows where vocals come in during each part. Figure 1 repeats 4 times. Verse 1: Bass repeats Figure 2 twice, vocals come third time. Bass repeats Figure 2 over the first 2 lines of words. Figure 3: Verse 2: Bass repeats figure 2 throughout. Lead guitar plays Figure 4: Figure 3: Refrain: Repeat Figure 1 twice Verse 3: Same as verse 2. Figure 3: Refrain 2: Repeat Figure 1 thrice Guitar solo Repeat Figure 1 and fade -- If found, please return to: | Paul Riddle | paulr@umbc3.umbc.edu UMBC, Academic Computing Services | Baltimore, MD 21228 | (410) 455-3627
Tap to rate this tab
 
# A B C D E F G H I J K L M N O P Q R S T U V W X Y Z