Cradle Of Filth - The Promise Of Fever tab

Cradle of filth - Promise of Fever
this is a kick ass song to play 

Tuning : Drop C {CGCFAD}

Enjoy

Intro:

|----------------------------|----------------------------------|___________|----------------------------|----------------------------------| \|----------------------------|----------------------------------| \|--9----------8--------9-----|----------------------------------|x2 then \|--7----------6--------7-----|-88888888888888888888888888888888-| \|----------------------------|-66666666666666666666666666666666-| \
| | X2|----------------------------|----------------------------------| /|----------------------------|----------------------------------| /|----------------------------|----------------------------------|x2 /|----------------------------|-88888888888888888888888888888888-| /|-7-7--7-7-7--7-9-9--9-10-10-|-66666666666666666666666666666666-|___________/|-5-5--5-5-5--5-7-7--7--8--8-|----------------------------------|
|--------------------------|--------------------------||--------------------------|--------------------------|\|--------------------------|--------------------------| \|-4"----------4"-----------|--3"-2"-3"----3"-5"-3'-2"-| \|----2"-4"-2"----2"-4"-2"--|-----------0"-------------| \|--------------------------|--------------------------| \
| | X2|--------------------------|--------------------------| /|--------------------------|--------------------------| /|--------------------------|--------------------------| /|-4"----------4"-----------|-------------5------------| /|----2"-4"-2"----2"-4"-2"--|----7--------3-------3----|/|--------------------------|----5----------------1----|
|---------------------|-----------------------------||---------------------|-----------------------------|\|---------------------|-----------------------------| \|-----------------4-5-|-----------------------------| \|-----7-6-----7-6-2-3-|-----7-6-----------------3-2-| \|-0-0-5-4-0-0-5-4-----|-0-0-5-4-0-0-5-4-2-5-4-2-----| \
| | X2|---------------------|-----------------------------| /|---------------------|-----------------------------| /|---------------------|-----------------5^----------| /|-----------------4-5-|------7-6^-----6-------------| /|-----7-6-----7-6-2-3-|-----------------------------|/|-0-0-5-4-0-0-5-4-----|---8"-------5"---------------|
|----------------------------|----------------------------------|___________|----------------------------|----------------------------------| \|----------------------------|----------------------------------| \|--9----------8--------9-----|----------------------------------|x2 then \|--7----------6--------7-----|-88888888888888888888888888888888-| \|----------------------------|-66666666666666666666666666666666-| \
| | X2|----------------------------|----------------------------------| /|----------------------------|----------------------------------| /|----------------------------|----------------------------------|x2 /|----------------------------|-88888888888888888888888888888888-| /|-7-7--7-7-7--7-9-9--9-10-10-|-66666666666666666666666666666666-|___________/|-5-5--5-5-5--5-7-7--7--8--8-|----------------------------------|
|--------------------------|--------------------------||--------------------------|--------------------------|\|--------------------------|--------------------------| \|-4"----------4"-----------|--3"-2"-3"----3"-5"-3'-2"-| \|----2"-4"-2"----2"-4"-2"--|-----------0"-------------| \|--------------------------|--------------------------| \
| | X2|--------------------------|--------------------------| /|--------------------------|--------------------------| /|--------------------------|--------------------------| /|-4"----------4"-----------|-------------5------------| /|----2"-4"-2"----2"-4"-2"--|----7--------3-------3----|/|--------------------------|----5----------------1----|
|---------------------|-----------------------------||---------------------|-----------------------------|\|---------------------|-----------------------------| \|-----------------4-5-|-----------------------------| \|-----7-6-----7-6-2-3-|-----7-6-----------------3-2-| \|-0-0-5-4-0-0-5-4-----|-0-0-5-4-0-0-5-4-2-5-4-2-----| \
| | X2|---------------------|-----------------------------| /|---------------------|-----------------------------| /|---------------------|-----------------5^----------| /|-----------------4-5-|------7-6^-----6-------------| /|-----7-6-----7-6-2-3-|-----------------------------|/|-0-0-5-4-0-0-5-4-----|---8"-------5"---------------|
|----------------------|--------------------------------||----------------------|--------------------------------||----------------------|--------------------------------||---7---------10----9--|---7---9---10--12-12/13/12---10-||---5----------8----7--|---5---7----8--10-10/11/10----8-||---5----------8----7--|---5---7----8--10-10/11/10----8-|
| ||----------------------|--------------------------------||----------------------|--------------------------------||----------------------|--------------------------------||---7---9-----10----9--|---7---9---10--12-12/13/12---10-||---5---7------8----7--|---5---7----8--10-10/11/10----8-||---5---7------8----7--|---5---7----8--10-10/11/10----8-|
X2 then X2 |----------------------|--------------------------------||----------------------|--------------------------------||----------------------|--------------------------------||----------------------|---11-----10--------------------||--4----6----7----8----|----9------8------7----8--------||--2----4----5----6----|----9------8------5----6--------|
| ||-------------------------------------------------------||-------------------------------------------------------||-------------------------------------------------------||-------------------------------------------------------||---4---------------------------------------------------||---2---------------------------------------------------|
____ | X2 ||-----------------------|-------------------------------|---------------------------||-----------------------|-------------------------------|---------------------------||-----------------------|------------------------2-1-2--|---------------------------||-----------------------|--------4----------3-----------|---------------------------||--7-7-7-------6-6-6----|--7-7-7------------------------|--7-7-7-8-7-6-6-6-6-8-7-6--||--5-5-5-------4-4-4----|--5-5-5------------------------|--5-5-5-------4-4-4--------|
|----------------------|--------------------------------||----------------------|--------------------------------||----------------------|--------------------------------||---7---9-----10----9--|---7---9---10--12-12/13/12---10-||---5---7------8----7--|---5---7----8--10-10/11/10----8-||---5---7------8----7--|---5---7----8--10-10/11/10----8-|
| ||----------------------|--------------------------------||----------------------|--------------------------------||----------------------|--------------------------------||---7-10-9-------------|---7---9---10--12-12/13/12---10-||---5-8--7-------------|---5---7----8--10-10/11/10----8-||---5-8--7-------------|---5---7----8--10-10/11/10----8-|
X2 then X2 |----------------------|--------------------------------||----------------------|--------------------------------||----------------------|--------------------------------||----------------------|---11-----10--------------------||--4----6----7----8----|----9------8------7----8--------||--2----4----5----6----|----9------8------5----6--------|
| ||-------------------------------------------------------||-------------------------------------------------------||-------------------------------------------------------||-------------------------------------------------------||---4---------------------------------------------------||---2---------------------------------------------------|
|------------------------||------------------------||------------------------||------------------------||--7-7-7----------6-6-6--||--5-5-5----------4-4-4--|
|----------------------------|----------------------------------|___________|----------------------------|----------------------------------| \|----------------------------|----------------------------------| \|--9----------8--------9-----|----------------------------------|x2 then \|--7----------6--------7-----|-88888888888888888888888888888888-| \|----------------------------|-66666666666666666666666666666666-| \
| | X2|----------------------------|----------------------------------| /|----------------------------|----------------------------------| /|----------------------------|----------------------------------|x2 /|----------------------------|-88888888888888888888888888888888-| /|-7-7--7-7-7--7-9-9--9-10-10-|-66666666666666666666666666666666-|___________/|-5-5--5-5-5--5-7-7--7--8--8-|----------------------------------|
|---------------------|---------------------------|--------------------||---------------------|---------------------------|--------------------||---------------------|---------------------------|--------------------||---9-----------------|------------------------9--|---(9)--------------||---7------------9----|---4----------4---------7--|---(7)--------------||----------------7----|---2----------0------------|--------------------|
Tap to rate this tab
 
# A B C D E F G H I J K L M N O P Q R S T U V W X Y Z