Cradle Of Filth - Beauty Slept In Bodom tab

Band: Cradle Of Filth
Title: Beauty Slept In Sodom
Album: Dusk And Her Embrace
Transcribed by: Stephan Thiemann
Homepage: go.to/tabslayer
Email: exploited666@hotmail.com

Riff 1

x 4

|-----6-5---5-5---6-5-8-6-5---6-5-8-6-------------||---------8---------------------------5-----------||-7---------------------------------------8-----5-||---------------------------------------------8---||-------------------------------------------------||-------------------------------------------------|
| ||-------------------------------------------------||-------------------------------------------------||-7-----------------------------------9---8-------||-7-----------10----------9-----------9---8-------||-5-----------10----------9-----------7---6-------||-------------8-----------7-----------------------|
Riff 2 x 2
-----------------------------------10\---9---8---9--10\---9---8---9--8-\---7---6---7------------------ ^
Riff 3 x 4
|---------------||-6---5---4---5-||---------------||---------------||---------------||---------------|
| ||---------------||---------------||-5---4---3---4-||---------------||---------------||---------------|
x 3
|-8---7---6---7-||---------------||---------------||---------------||---------------||---------------|
|
|---------------||-6---5---4---5-||---------------||---------------||---------------||---------------|
x 2
----------------------7---7--7---7--5---5-
Riff 4 x 2
|-----------------------------------------------------------------------||-5---3---1---0-----5---3---1---1-3---5---3---1---0-----5---3---1---1-3-||---5---4---2---0-----5---4---2---------5---4---2---0-----5---4---2-----||-----------------------------------------------------------------------||-----------------------------------------------------------------------||-----------------------------------------------------------------------|
| ||-----------------------------------------------------------------------||-----------------------------------------------------------------------||-----------------------------------------------------------------------||-7-------7---------7-------7---------10------10--------10------10------||-7-------7---------7-------7---------10------10--------10------10------||-5-------5---------5-------5---------8-------8---------8-------8-------|
|-----------------------------------------------------------------------||-5---3---1---0-----5---3---1---1-3---5---3---1---0-----5---3---1---1-3-||---5---4---2---0-----5---4---2---------5---4---2---0-----5---4---2-----||-----------------------------------------------------------------------||-----------------------------------------------------------------------||-----------------------------------------------------------------------|
| ||-----------------------------------------------------------------------||-----------------------------------------------------------------------||-9-------9---------9-------9-------------------------------------------||-9-------9---------9-------9---------7-------7---------7-------7-------||-7-------7---------7-------7---------7-------7---------7-------7-------||-------------------------------------5-------5---------5-------5-------|
Riff 5 skipped Riff 4 Riff 6 x 1
-------------------------------------------------------9---10--9------10--9---9---10--9---7--10--9---7---8---7---7--8---7---------------5-
Riff 7 x 2
-------------------------------------------------------------------------------------------------------------------------------------------9-10---9-10-------9-10---9-10-------7-8---7-8-------7-8---7-8----8-----------------8-----------------6---------------6------------7-----------------7-----------------5---------------5--------------------------------------------------------------------------------
Riff 8 - Solo
--------------------------------------------------------------------------------6-8-8/10v--------------------------------------------------9-------------10p9h10-9-10-9-7---------7-9v-----------5/7v----------------------------------10-9-10-------------7------------------------------------------------------3/5-----5---------------------------------------------------
-----------------------------------------------------------------------------------------------------------------------------7h9p7---------------------------------------------------------------9-10-10-10-9-7-7---9h10p9p7-9h10p9p7-9h10p9p7-9h10p9p7-----------------------------------------------------------------------------------------------------------------------------
-------------------------------------------------------------------------------------------------------------------------------7--------5h7p5p4-5h7p5p4-5h7p5p4-5h7p5p4----------5-7-9---10-9--------------------------------------5-7-8-------------------------------------------------8------------------------------------------------------
----------------------------------------------5-------------------------------------5-------5-4---5-4-5p4h5-------5-------7-5-7------------------7v-----7---------------------------------------------------------------
** Riff 4 ** Riff 9 /w tremelo x 2
-----------------------------------------------------------------------------------------------------------5---4---5-4-5---4---5-4-5---4---5---7---5-4---5-4-5----------------------------------------------------------------------------------------------------------------------------------------------------------------
Tap to rate this tab
 
# A B C D E F G H I J K L M N O P Q R S T U V W X Y Z