Cradle Of Filth – Adest Rosa Secreta Eros tab

CRADLE OF FILTH
ADEST ROSA SECRETA EROS

*=PALM MUTE

dgcfad

TABBED BY-andherembrace

0:52 -----------------------------------------------------------------|-----------------------------------------------------------------|-----------------------------------------------------------------|-7-------10-9----------------------------------------------------|-5-------8--7-8-----7-------3--------3-5-6--------5-6-5-------5-7|-5-------8--7-6-----5-------1--------1-3-4--------3-4-3-------3-5|
-----------------------------------------------------------------|-----------------------------------------------------------------|-----------------------------------------------------------------|-7-------10-9----------------------------------------------------|-5-------8--7-8-----7-------3--------3-5-6--------5-6-5-------5-7|-5-------8--7-6-----5-------1--------1-3-4--------3-4-3-------3-5|
1:17-----------------------------------------------------------------|-----------------------------------------------------------------|-----------------------------------------------------------------|--------77887777--------77887788--------77887788---------77887777|55555555--------55555555--------88888888---------88888888--------|-----------------------------------------------------------------|
---------------------------------------------------------------|---------------------------------------------------------------|888888888888-9999-8888-6666-8888-9999-101010101010101010101010-|666666666666-6666-6666-6666-6666-6666-8-8-8-8-8-8-8-8-8-8-8-8--|---------------------------------------------------------------|---------------------------------------------------------------|
---------------------------------|---------------------------------|-12121212-99999999-1010-99-77-99-|-10101010-77777777-8-8--77-55-77-|---------------------------------|---------------------------------|
1:30------------------------------------------------------------------|------------------------------------------------------------------|----------------7777-10101010-9999-7777----10101010-9999----------|------------7777-----------------------7777-------------7777-6666-|--------8888------------------------------------------------------|10101010----------------------------------------------------------|
-----------------------------------------------------------|-----------------------------------------------------------|10101010-9999----------10101010-9999-----10101010-9999-----|--------------6666-8888-------------8888--------------8888-|-----------------------------------------------------------|-----------------------------------------------------------|
-------------------------------------------------------------------|-------------------------------------------------------------------|10101010--------10101010999910101010121212121010101099101012121010-|--------88887777---------------------------------------------------|-------------------------------------------------------------------|-------------------------------------------------------------------|
1:43-----------------------------------------------------------------|-----------------------------------------------------------------|-----------------------------------------------------------------|--------77887777--------77887788--------77887788---------77887777|55555555--------55555555--------88888888---------88888888--------|-----------------------------------------------------------------|
---------------------------------------------------------------|---------------------------------------------------------------|888888888888-9999-8888-6666-8888-9999-101010101010101010101010-|666666666666-6666-6666-6666-6666-6666-8-8-8-8-8-8-8-8-8-8-8-8--|---------------------------------------------------------------|---------------------------------------------------------------|
---------------------------------|---------------------------------|-12121212-99999999-1010-99-77-99-|-10101010-77777777-8-8--77-55-77-|---------------------------------|---------------------------------|
1:56------------------------------------------------------------------|------------------------------------------------------------------|----------------7777-10101010-9999-7777----10101010-9999----------|------------7777-----------------------7777-------------7777-6666-|--------8888------------------------------------------------------|10101010----------------------------------------------------------|
-----------------------------------------------------------|-----------------------------------------------------------|10101010-9999----------10101010-9999-----10101010-9999-----|--------------6666-8888-------------8888--------------8888-|-----------------------------------------------------------|-----------------------------------------------------------|
-------------------------------------------------------------------|-------------------------------------------------------------------|10101010--------10101010999910101010121212121010101099101012121010-|--------88887777---------------------------------------------------|-------------------------------------------------------------------|-------------------------------------------------------------------|
2:09
-----------------------------------------------------------------------|-----------------------------------------------------------------------|-----------------------------------------------------------------------|---******---**************--------******---**********------------------|-4-444444-4-44444444444444-2-5--4-444444-4-4444444444-8-10-8-7-8-7-5-7-|-2-222222-2-22222222222222-0-3--2-222222-2-2222222222-6/8\-6\5-6-5-3-5-|
-----------------------------------------------------------------------|-----------------------------------------------------------------------|-----------------------------------------------------------------------|---******---**************--------******---**********------------------|-4-444444-4-44444444444444-2-5--4-444444-4-4444444444-10--9---8--------|-2-222222-2-22222222222222-0-3--2-222222-2-2222222222-8---7---6--------|
-----------------------------------------------------------------------|-----------------------------------------------------------------------|-----------------------------------------------------------------------|---******---**************--------******---**********------------------|-4-444444-4-44444444444444-2-5--4-444444-4-4444444444-8-10-8-7-8-7-5-7-|-2-222222-2-22222222222222-0-3--2-222222-2-2222222222-6/8\-6\5-6-5-3-5-|
---------------------------------|---------------------------------|---------------------------------|-8---7---10---9------------------|-6---5----8---7--10--9---10-9-8--|-6---5----8---7--8---7---8--7-6--|
-----------------------------------------------------------------------|-----------------------------------------------------------------------|-----------------------------------------------------------------------|---******---**************--------******---**********------------------|-4-444444-4-44444444444444-2-5--4-444444-4-4444444444-8-10-8-7-8-7-5-7-|-2-222222-2-22222222222222-0-3--2-222222-2-2222222222-6/8\-6\5-6-5-3-5-|
-----------------------------------------------------------------------|-----------------------------------------------------------------------|-----------------------------------------------------------------------|---******---**************--------******---**********------------------|-4-444444-4-44444444444444-2-5--4-444444-4-4444444444-10--9---8--------|-2-222222-2-22222222222222-0-3--2-222222-2-2222222222-8---7---6--------|
-----------------------------------------------------------------------|-----------------------------------------------------------------------|-----------------------------------------------------------------------|---******---**************--------******---**********------------------|-4-444444-4-44444444444444-2-5--4-444444-4-4444444444-8-10-8-7-8-7-5-7-|-2-222222-2-22222222222222-0-3--2-222222-2-2222222222-6/8\-6\5-6-5-3-5-|
---------------------------------|---------------------------------|---------------------------------|-8---7---10---9------------------|-6---5----8---7--10--9---10-9-8--|-6---5----8---7--8---7---8--7-6--|
3:53-4:10-------------------------------------------------------------|-------------------------------------------------------------|-------------------------------------------------------------|------*--*----------------------------*-*--------------------|-7----10-9--6-----3-----7----10-7----10-9--6-----3-----7--10-|-5----8--7--4-----1-----5----8--5----8--7--4-----1-----5--8--|
repeats 8 times 4:10-5:01----------------------------------|----------------------------------|--------9-------------------------|-----7--7--9---10---7-6-----------|-8---5-----7---8----5-4--7-8-7----|-6-----------------------5-6-5----|
5:01R-------5-7-5------5-8-5-----5-7-5-----5-|------5------5---5-----5---5-----5---5--|----2-----------------------------------|---2-----------7---------7---------7----|--3-------------------------------------|-5--------------------------------------|
-------5-7-5------5-8-5-----5-7-5-----5-|------5------5---5-----5---5-----5---5--|----2-----------------------------------|---2-----------7---------7---------7----|--3-------------------------------------|-5--------------------------------------|
-------5-7-5------5-8-5-----5-7-5-----5-|------5------5---5-----5---5-----5---5--|----2-----------------------------------|---2-----------7---------7---------7----|--3-------------------------------------|-5--------------------------------------|
-------5-7-5------5-8-5-----5-7-5-----5-|------5------5---5-----5---5-----5---5--|----2-----------------------------------|---2-----------7---------7---------7----|--3-------------------------------------|-5--------------------------------------|
L-------------------------------------------------------|-------------------------------------------------------|----/9----------/9-----------/10------------/10--------|-------9--10--------9--10--------10-12----------10-12--|--7-----------7------------8---------------8-----------|-------------------------------------------------------|
5:27R-----------------------------------------------------|-----------------------------------------------------|----9--12---14---------9--12--14---------------------|-7------------------7-----------------10--12--10--9--|-----------------------------------------------------|-----------------------------------------------------|
--------------------------------------------------|--------------------------------------------------|------12------------------9-----------------------|--10------12-10-9-12-10-9---10-9--10-12-9---------|--------------------------------------------------|--------------------------------------------------|
L--------------------------------------------------|--------------------------------------------------|----/9----------/9-----------/10------------/10---|-------9--10--------9--10--------10-12------------|--7-----------7------------8---------------8------|--------------------------------------------------|
--------------------------|--------------------------|--------------------------|-*-*-*-*-*-*-*-*-*-*-*-*--|-3-3-3-3-3-3-3-3-3-3-3-3--|-1-1-1-1-1-1-1-1-1-1-1-1--|
5:53 2 times-------------------------------------------------------------------|-------------------------------------------------------------------|-------------------------------------------------------------------|7-------------------------------7----------------------------------|5-----3----7---6------8-----7---5------11---10---8-----12----11-11-|5-----1----5---4------6-----5---5------9----8----6-----10-----9--9-|
Please rate this tab:
x1.0