Cradle Of Filth – Darkly Darkly Venus Aversa tab

CRADLE OF FILTH
DARKLY,DARKLY,VENUS AVERSA

TABBED BY-andherembrace

all songs are in dgcfad


01 THE CULT OF VENUS AVERSA

------------------------------------------------------------------------|------------------------------------------------------------------------|------------------------------------------------------------------------|
999999999999999999999999121212121212121288888888888888889999888855558888|777777777777777777777777101010101010101066666666666666667777666633336666|------------------------------------------------------------------------|
------------------------------------------------------------------------|------------------------------------------------------------------------|------------------------------------------------------------------------|
999999999999999999999999121212121212121255555555555544558888888888889988|777777777777777777777777101010101010101033333333333322336666666666667766|------------------------------------------------------------------------|
------------------------------------------------------------------------|------------------------------------------------------------------------|------------------------------------------------------------------------|
999999999999999999999999121212121212121288888888888888889999888855558888|777777777777777777777777101010101010101066666666666666667777666633336666|------------------------------------------------------------------------|
------------------------------------------------------------------------|------------------------------------------------------------------------|------------------------------------------------------------------------|
999999999999999999999999121212121212121255555555555544558888888888889988|777777777777777777777777101010101010101033333333333322336666666666667766|------------------------------------------------------------------------|
------------------------------------------------------------------------|------------------------------------------------------------------------|------------------------------------------------------------------------|
999999999999999999999999121212121212121288888888888888889999888855558888|777777777777777777777777101010101010101066666666666666667777666633336666|------------------------------------------------------------------------|
--------------------------------------------------------------------------|--------------------------------------------------------------------------|--------------------------------------------------------------------------|
999999999999999999999999121212121212121255555555555544558888888888889988--|777777777777777777777777101010101010101033333333333322336666666666667766--|--------------------------------------------------------------------------|
------------------------------------------------------------------------|------------------------------------------------------------------------|------------------------------------------------------------------------|
999999999999999999999999121212121212121288888888888888889999888855558888|777777777777777777777777101010101010101066666666666666667777666633336666|------------------------------------------------------------------------|
------------------------------------------------------------------------|------------------------------------------------------------------------|------------------------------------------------------------------------|
999999999999999999999999121212121212121255555555555544558888888888889988|777777777777777777777777101010101010101033333333333322336666666666667766|------------------------------------------------------------------------|
----------------------------------------------------------------------|----------------------------------------------------------------------|----------------------------------------------------------------------|----------9-9----------9-10-8-----------------------------------------|----------7-7----------7/8--6-------6------6-6-7-6-9-10-9--5--6--5--3-|-00000000-----00000000---------4444-4-4444-4-4/5-4-7/8--7--3--4--3--1-| ******** ******** **** ****
----------------------------------------------------------------------|----------------------------------------------------------------------|----------------------------------------------------------------------|----------9-9----------9-10-8-----------------------------------------|----------7-7----------7/8--6-------6------6-6-7-6-9-10-9--5--6--5--3-|-00000000-----00000000---------4444-4-4444-4-4/5-4-7/8--7--3--4--3--1-| ******** ******** **** ****
----------------------------------------------------------------------|----------------------------------------------------------------------|----------------------------------------------------------------------|----------9-9----------9-10-8-----------------------------------------|----------7-7----------7/8--6-------6------6-6-7-6-9-10-9--5--6--5--3-|-00000000-----00000000---------4444-4-4444-4-4/5-4-7/8--7--3--4--3--1-| ******** ******** **** ****
----------------------------------------------------------------------|----------------------------------------------------------------------|----------------------------------------------------------------------|----------9-9----------9-10-8-----------------------------------------|----------7-7----------7/8--6-------6------6-6-7-6-9-10-9--5--6--5--3-|-00000000-----00000000---------4444-4-4444-4-4/5-4-7/8--7--3--4--3--1-| ******** ******** **** ****
L-------------------------------------------------|-------------------------------------------------|-------------------------------------------------|--------------------------------------7-8-7------|-6--5--3-5--6--5--3-5--6--5--6-7-9-10-------10-9-|-4--3--1-3--4--3--1-3--4--3--4-------------------|
* * * * * * * *R-------------------------------------------------|-------------------------------------------------|-------------------------------------------------|-------------------------------------------------|-6--5--3-5--6--5--3-5--6--5--6-------------------|-4--3--1-3--4--3--1-3--4--3--4-0-2-3-5-6-5-3-2---|
* * * * * * * *B------------------------------------------------|------------------------------------------------|------------------------------------------------|------------------------------------------------|-6--5--3-5--6--5--3-5--6--5--6------------------|-4--3--1-3--4--3--1-3--4--3--4-000-000-000-000--| *** *** *** ***
L-------------------------------------------------|-------------------------------------------------|-------------------------------------------------|--------------------------------------7-8-7------|-6--5--3-5--6--5--3-5--6--5--6-7-9-10-------10-9-|-4--3--1-3--4--3--1-3--4--3--4-------------------|
* * * * * * * *R-------------------------------------------------|-------------------------------------------------|-------------------------------------------------|-------------------------------------------------|-6--5--3-5--6--5--3-5--6--5--6-------------------|-4--3--1-3--4--3--1-3--4--3--4-0-2-3-5-6-5-3-2---|
* * * * * * * *B------------------------------------------------|------------------------------------------------|------------------------------------------------|------------------------------------------------|-6--5--3-5--6--5--3-5--6--5--6------------------|-4--3--1-3--4--3--1-3--4--3--4-000-000-000-000--| *** *** *** ***
------------------------------------------------------------------------|------------------------------------------------------------------------|------------------------------------------------------------------------|
999999999999999999999999121212121212121288888888888888889999888855558888|777777777777777777777777101010101010101066666666666666667777666633336666|------------------------------------------------------------------------|
------------------------------------------------------------------------|------------------------------------------------------------------------|------------------------------------------------------------------------|
999999999999999999999999121212121212121255555555555544558888888888889988|777777777777777777777777101010101010101033333333333322336666666666667766|------------------------------------------------------------------------|
------------------------------------------------------------------------|------------------------------------------------------------------------|------------------------------------------------------------------------|
999999999999999999999999121212121212121288888888888888889999888855558888|777777777777777777777777101010101010101066666666666666667777666633336666|------------------------------------------------------------------------|
---------------------------------------------------------------------------|---------------------------------------------------------------------------|---------------------------------------------------------------------------|
9999999999999999999999991212121212121212555555555555445588888888888899889--|7777777777777777777777771010101010101010333333333333223366666666666677667--|------------------------------------------------------------------------7\-|
1-------------------------------------------------------------------------|-------------------------------------------------------------------------|-------------------------------------------------------------------------|-------------------------------------------------------------------------|
-777777777777991010999999999999101099666666666666991010999999999999101099|-------------------------------------------------------------------------|
2---------------------------------------------------------------------------|///----------------///----------------///---------------///----------------|-9----------111212-11---------12121111-8---------111212-11--------12121111-|---------------------------------------------------------------------------|---------------------------------------------------------------------------|
1-----------------------------------------------------------------------|-----------------------------------------------------------------------|-----------------------------------------------------------------------|-----------------------------------------------------------------------|-777777777777991010999999999999101099----------------------------------|-------------------------------------88888888888877887777777777777777--|
2----------------------------------------------------------------------|///----------------///----------------///-------------///-------------|-9----------111212-11---------12121111--------------------------------|---------------------------------------10-------991010-9--------------|----------------------------------------------------------------------|
1-------------------------------------------------------------------------|-------------------------------------------------------------------------|-------------------------------------------------------------------------|-------------------------------------------------------------------------|
-777777777777991010999999999999101099666666666666991010999999999999101099|-------------------------------------------------------------------------|
2---------------------------------------------------------------------------|///----------------///----------------///---------------///----------------|-9----------111212-11---------12121111-8---------111212-11--------12121111-|---------------------------------------------------------------------------|---------------------------------------------------------------------------|
1-----------------------------------------------------------------------|-----------------------------------------------------------------------|-----------------------------------------------------------------------|-----------------------------------------------------------------------|-777777777777991010999999999999101099----------------------------------|-------------------------------------88888888888877887777777777777777--|
2------------------------------------------------------------------------|///----------------///----------------///-------------///---------------|-9----------111212-11---------12121111----------------------------------|---------------------------------------10-------991010-9----------------|------------------------------------------------------------------------|
L-------------------------------------------------|-------------------------------------------------|-------------------------------------------------|--------------------------------------7-8-7------|-6--5--3-5--6--5--3-5--6--5--6-7-9-10-------10-9-|-4--3--1-3--4--3--1-3--4--3--4-------------------|
* * * * * * * *R-------------------------------------------------|-------------------------------------------------|-------------------------------------------------|-------------------------------------------------|-6--5--3-5--6--5--3-5--6--5--6-------------------|-4--3--1-3--4--3--1-3--4--3--4-0-2-3-5-6-5-3-2---|
* * * * * * * *B------------------------------------------------|------------------------------------------------|------------------------------------------------|------------------------------------------------|-6--5--3-5--6--5--3-5--6--5--6------------------|-4--3--1-3--4--3--1-3--4--3--4-000-000-000-000--| *** *** *** ***
L-------------------------------------------------|-------------------------------------------------|-------------------------------------------------|--------------------------------------7-8-7------|-6--5--3-5--6--5--3-5--6--5--6-7-9-10-------10-9-|-4--3--1-3--4--3--1-3--4--3--4-------------------|
* * * * * * * *R-------------------------------------------------|-------------------------------------------------|-------------------------------------------------|-------------------------------------------------|-6--5--3-5--6--5--3-5--6--5--6-------------------|-4--3--1-3--4--3--1-3--4--3--4-0-2-3-5-6-5-3-2---|
* * * * * * * *B---------------------------------------------|---------------------------------------------|---------------------------------------------|---------------------------------------------|-6--5--3-5--6--5--3-5--6--5--6---------------|-4--3--1-3--4--3--1-3--4--3--4-000-000-000---| *** *** ***
------------------------------------------------------------------|------------------------------------------------------------------|------------------------------------------------------------------|------------------------------------------------------------------|
-4444444444445544555555555555445544444444444455445555444455558888-|------------------------------------------------------------------| ****************************************************************
------------------------------------------------------------------|------------------------------------------------------------------|------------------------------------------------------------------|------------------------------------------------------------------|
-7777777777778877888888888888778877777777777788778888777755557777-|------------------------------------------------------------------| ****************************************************************
------------------------------------------------------------------|------------------------------------------------------------------|------------------------------------------------------------------|------------------------------------------------------------------|
-4444444444445544555555555555445544444444444455445555444422224444-|------------------------------------------------------------------| ****************************************************************
-----------------------------------------------------------------|-----------------------------------------------------------------|-----------------------------------------------------------------|-----------------------------------------------------------------|
-1111111111112211222222222222112211111111111122112222111122225555|-----------------------------------------------------------------| ****************************************************************
------------------------------------------------------|------------------------------------------------------|------------------------------------------------------|-6------6------6------6------6------6------7-6-7-10---|-4-4444-4-4444-4-4444-4-4444-4-4444-4-4444-5-4-5-8----|------------------------------------------------------| **** **** **** **** **** ****
------------------------------------------------------|------------------------------------------------------|------------------------------------------------------|-9------9------9------9------9------9------10-9-7-9---|-7-7777-7-7777-7-7777-7-7777-7-7777-7-7777-8--7-5-7---|------------------------------------------------------| **** **** **** **** **** ****
----------------------------------------------------|----------------------------------------------------|----------------------------------------------------|-6------6------6------6------6------6------7-6-4-6--|-4-4444-4-4444-4-4444-4-4444-4-4444-4-4444-5-4-2-4--|----------------------------------------------------| **** **** **** **** **** ****
----------------------------------------------------|----------------------------------------------------|----------------------------------------------------|-3------3------3------3------3------3------4-3-4-7--|-1-1111-1-1111-1-1111-1-1111-1-1111-1-1111-2-1-2-5--|----------------------------------------------------|
------------------------------------------------------------------------|------------------------------------------------------------------------|------------------------------------------------------------------------|
999999999999999999999999121212121212121288888888888888889999888855558888|777777777777777777777777101010101010101066666666666666667777666633336666|------------------------------------------------------------------------|
------------------------------------------------------------------------|------------------------------------------------------------------------|------------------------------------------------------------------------|
999999999999999999999999121212121212121255555555555544558888888888889988|777777777777777777777777101010101010101033333333333322336666666666667766|------------------------------------------------------------------------|
------------------------------------------------------------------------|------------------------------------------------------------------------|------------------------------------------------------------------------|
999999999999999999999999121212121212121288888888888888889999888855558888|777777777777777777777777101010101010101066666666666666667777666633336666|------------------------------------------------------------------------|
------------------------------------------------------------------------|------------------------------------------------------------------------|------------------------------------------------------------------------|
999999999999999999999999121212121212121255555555555544558888888888889988|777777777777777777777777101010101010101033333333333322336666666666667766|------------------------------------------------------------------------|
------------------------------------------------------|------------------------------------------------------|------------------------------------------------------|-6------6------6------6------6------6------7-6-7-10---|-4-4444-4-4444-4-4444-4-4444-4-4444-4-4444-5-4-5-8----|------------------------------------------------------| **** **** **** **** **** ****
------------------------------------------------------|------------------------------------------------------|------------------------------------------------------|-9------9------9------9------9------9------10-9-7-9---|-7-7777-7-7777-7-7777-7-7777-7-7777-7-7777-8--7-5-7---|------------------------------------------------------| **** **** **** **** **** ****
----------------------------------------------------|----------------------------------------------------|----------------------------------------------------|-6------6------6------6------6------6------7-6-4-6--|-4-4444-4-4444-4-4444-4-4444-4-4444-4-4444-5-4-2-4--|----------------------------------------------------| **** **** **** **** **** ****
----------------------------------------------------|----------------------------------------------------|----------------------------------------------------|-3------3------3------3------3------3------4-3-4-7--|-1-1111-1-1111-1-1111-1-1111-1-1111-1-1111-2-1-2-5--|----------------------------------------------------|
------------------------------------------------------|------------------------------------------------------|------------------------------------------------------|-6------6------6------6------6------6------7-6-7-10---|-4-4444-4-4444-4-4444-4-4444-4-4444-4-4444-5-4-5-8----|------------------------------------------------------| **** **** **** **** **** ****
------------------------------------------------------|------------------------------------------------------|------------------------------------------------------|-9------9------9------9------9------9------10-9-7-9---|-7-7777-7-7777-7-7777-7-7777-7-7777-7-7777-8--7-5-7---|------------------------------------------------------| **** **** **** **** **** ****
----------------------------------------------------|----------------------------------------------------|----------------------------------------------------|-6------6------6------6------6------6------7-6-4-6--|-4-4444-4-4444-4-4444-4-4444-4-4444-4-4444-5-4-2-4--|----------------------------------------------------| **** **** **** **** **** ****
----------------------------------------------------|----------------------------------------------------|----------------------------------------------------|-3------3------3------3------3------3------4-3-4-7--|-1-1111-1-1111-1-1111-1-1111-1-1111-1-1111-2-1-2-5--|----------------------------------------------------|
L-------------------------------------------------|-------------------------------------------------|-------------------------------------------------|--------------------------------------7-8-7------|-6--5--3-5--6--5--3-5--6--5--6-7-9-10-------10-9-|-4--3--1-3--4--3--1-3--4--3--4-------------------|
* * * * * * * *R-------------------------------------------------|-------------------------------------------------|-------------------------------------------------|-------------------------------------------------|-6--5--3-5--6--5--3-5--6--5--6-------------------|-4--3--1-3--4--3--1-3--4--3--4-0-2-3-5-6-5-3-2---|
* * * * * * * *B------------------------------------------------|------------------------------------------------|------------------------------------------------|------------------------------------------------|-6--5--3-5--6--5--3-5--6--5--6------------------|-4--3--1-3--4--3--1-3--4--3--4-000-000-000-000--| *** *** *** ***
L-------------------------------------------------|-------------------------------------------------|-------------------------------------------------|--------------------------------------7-8-7------|-6--5--3-5--6--5--3-5--6--5--6-7-9-10-------10-9-|-4--3--1-3--4--3--1-3--4--3--4-------------------|
* * * * * * * *R-------------------------------------------------|-------------------------------------------------|-------------------------------------------------|-------------------------------------------------|-6--5--3-5--6--5--3-5--6--5--6-------------------|-4--3--1-3--4--3--1-3--4--3--4-0-2-3-5-6-5-3-2---|
* * * * * * * *B---------------------------------------------|---------------------------------------------|---------------------------------------------|---------------------------------------------|-6--5--3-5--6--5--3-5--6--5--6---------------|-4--3--1-3--4--3--1-3--4--3--4-000-000-000---| *** *** ***
------------------------------------------------------------------------|------------------------------------------------------------------------|------------------------------------------------------------------------|
999999999999999999999999121212121212121288888888888888889999888855558888|777777777777777777777777101010101010101066666666666666667777666633336666|------------------------------------------------------------------------|
------------------------------------------------------------------------|------------------------------------------------------------------------|------------------------------------------------------------------------|
999999999999999999999999121212121212121255555555555544558888888888889988|777777777777777777777777101010101010101033333333333322336666666666667766|------------------------------------------------------------------------|
------------------------------------------------------------------------|------------------------------------------------------------------------|------------------------------------------------------------------------|
999999999999999999999999121212121212121288888888888888889999888855558888|777777777777777777777777101010101010101066666666666666667777666633336666|------------------------------------------------------------------------|
------------------------------------------------------------------------|------------------------------------------------------------------------|------------------------------------------------------------------------|
999999999999999999999999121212121212121255555555555544558888888888889988|777777777777777777777777101010101010101033333333333322336666666666667766|------------------------------------------------------------------------|
----------------------------------------------------------------------|----------------------------------------------------------------------|----------------------------------------------------------------------|----------9-9----------9-10-8-----------------------------------------|----------7-7----------7/8--6-------6------6-6-7-6-9-10-9--5--6--5--3-|-00000000-----00000000---------4444-4-4444-4-4/5-4-7/8--7--3--4--3--1-| ******** ******** **** ****
----------------------------------------------------------------------|----------------------------------------------------------------------|----------------------------------------------------------------------|----------9-9----------9-10-8-----------------------------------------|----------7-7----------7/8--6-------6------6-6-7-6-9-10-9--5--6--5--3-|-00000000-----00000000---------4444-4-4444-4-4/5-4-7/8--7--3--4--3--1-| ******** ******** **** ****
----------------------------------------------------------------------|----------------------------------------------------------------------|----------------------------------------------------------------------|----------9-9----------9-10-8-----------------------------------------|----------7-7----------7/8--6-------6------6-6-7-6-9-10-9--5--6--5--3-|-00000000-----00000000---------4444-4-4444-4-4/5-4-7/8--7--3--4--3--1-| ******** ******** **** ****
----------------------------------------------------------------------|----------------------------------------------------------------------|----------------------------------------------------------------------|----------9-9----------9-10-8-----------------------------------------|----------7-7----------7/8--6-------6------6-6-7-6-9-10-9--5--6--5--3-|-00000000-----00000000---------4444-4-4444-4-4/5-4-7/8--7--3--4--3--1-| ******** ******** **** ****
||||||||||||||||||||||||||||||||||||||||||||||||||||||||||||||||| ||||||||||||||||||||||||||||||||||||||||||||||||||||||||||||||||| ||||||||||||||||||||||||||||||||||||||||||||||||||||||||||||||||| 02 ONE FOUL STEP FROM THE ABYSS
----------------------------------------------------------------|----------------------------------------------------------------|------------------------------------------------1010101010101010|101010101010101010101010111111111010101010101010-8-8-8-8-8-8-8-8|-8-8-8-8-8-8-8-8-8-8-8-8-8-8-8-8-8-8-8-8-8-8-8-8----------------|----------------------------------------------------------------|
-------------------------------------------|-------------------------------------------|-------------------------------------11-11-|-9-----------111111111010101010101010-9-9--|-7--77777777-------------------------------|-------------------------------------------| ******** * * * * * * * * * * * *
----------------------------------------------------------------|----------------------------------------------------------------|------------------------------------------------1010101010101010|101010101010101010101010111111111010101010101010-8-8-8-8-8-8-8-8|-8-8-8-8-8-8-8-8-8-8-8-8-8-8-8-8-8-8-8-8-8-8-8-8----------------|----------------------------------------------------------------|
---------------------------------|---------------------------------|---------------------------------|-8------8------8-----------------|-7-7777-7-7777-7-7777--8-10-8-10-|-----------------------6-8--6--8-| **** **** ****
----------------------------------------------------------------|----------------------------------------------------------------|------------------------------------------------1010101010101010|101010101010101010101010111111111010101010101010-8-8-8-8-8-8-8-8|-8-8-8-8-8-8-8-8-8-8-8-8-8-8-8-8-8-8-8-8-8-8-8-8----------------|----------------------------------------------------------------|
-------------------------------------------|-------------------------------------------|-------------------------------------11-11-|-9-----------111111111010101010101010-9-9--|-7--77777777-------------------------------|-------------------------------------------| ******** * * * * * * * * * * * *
----------------------------------------------------------------|----------------------------------------------------------------|------------------------------------------------1010101010101010|101010101010101010101010111111111010101010101010-8-8-8-8-8-8-8-8|-8-8-8-8-8-8-8-8-8-8-8-8-8-8-8-8-8-8-8-8-8-8-8-8----------------|----------------------------------------------------------------|
---------------------------------|---------------------------------|---------------------------------|-8------8------8-----------------|-7-7777-7-7777-7-7777--8-10-8-10-|-----------------------6-8--6--8-| **** **** ****
------------------------------------------------------------------|------------------------------------------------------------------|------------------------------------------------------------------|-----------------------------------------------------------10-9---|-----444433334477774444334433--------444433334444---8-7--8-----10-|-3333-------------------------4~-3333-------------9----8----------| **************************** **************** * *
-------------------------------------------------------------------|-----------------------------------------------------------------ph|---------------------------------------------------10-9----10-12-10|------------------------------------------10-9---8------10---------|-----444433334477774444334433-6----8-7--8-----10-------------------|-3333-------------------------4--9----8----------------------------| **************************** * *
------------------------------------------------------------------|------------------------------------------------------------------|------------------------------------------------------------------|-----------------------------------------------------------10-9---|-----444433334477774444334433--------444433334444---8-7--8-----10-|-3333-------------------------4~-3333-------------9----8----------| **************************** **************** * *
-------------------------------------------------------------------|-----------------------------------------------------------------ph|---------------------------------------------------10-9----10-12-10|------------------------------------------10-9---8------10---------|-----444433334477774444334433-6----8-7--8-----10-------------------|-3333-------------------------4--9----8----------------------------| **************************** * * *
-------------------------------------------------------------------|-------------------------------------------------------------------|-------------------------------------------------------------------|----------99999999-------------------------------------------------|------------------88888888999999996666666655555555-----------------|-66666666-----------------------------------------8888777744443333-| *****************************************************************
-------------------------------------------------------------------|-------------------------------------------------------------------|-------------------------------------------------------------------|----------99999999-------------------------------------------------|------------------888888889999999966666666555555558888666699998888-|-66666666----------------------------------------------------------| *****************************************************************
-------------------------------------------------------------------|-------------------------------------------------------------------|-------------------------------------------------------------------|----------99999999-------------------------------------------------|------------------88888888999999996666666655555555-----------------|-66666666-----------------------------------------8888777744443333-| *****************************************************************
-------------------------------------------------------------------|-------------------------------------------------------------------|-------------------------------------------------------------------|----------99999999-------------------------------------------------|------------------888888889999999966666666555555558888666699998888-|-66666666----------------------------------------------------------| *****************************************************************
----------------------------------------------------------------|----------------------------------------------------------------|------------------------------------------------1010101010101010|101010101010101010101010111111111010101010101010-8-8-8-8-8-8-8-8|-8-8-8-8-8-8-8-8-8-8-8-8-8-8-8-8-8-8-8-8-8-8-8-8----------------|----------------------------------------------------------------|
-------------------------------------------|-------------------------------------------|-------------------------------------11-11-|-9-----------111111111010101010101010-9-9--|-7--77777777-------------------------------|-------------------------------------------| ******** * * * * * * * * * * * *
----------------------------------------------------------------|----------------------------------------------------------------|------------------------------------------------1010101010101010|101010101010101010101010111111111010101010101010-8-8-8-8-8-8-8-8|-8-8-8-8-8-8-8-8-8-8-8-8-8-8-8-8-8-8-8-8-8-8-8-8----------------|----------------------------------------------------------------|
---------------------------------|---------------------------------|---------------------------------|-8------8------8-----------------|-7-7777-7-7777-7-7777--8-10-8-10-|-----------------------6-8--6--8-| **** **** ****
----------------------------------------------------------------|----------------------------------------------------------------|------------------------------------------------1010101010101010|101010101010101010101010111111111010101010101010-8-8-8-8-8-8-8-8|-8-8-8-8-8-8-8-8-8-8-8-8-8-8-8-8-8-8-8-8-8-8-8-8----------------|----------------------------------------------------------------|
-------------------------------------------|-------------------------------------------|-------------------------------------11-11-|-9-----------111111111010101010101010-9-9--|-7--77777777-------------------------------|-------------------------------------------| ******** * * * * * * * * * * * *
----------------------------------------------------------------|----------------------------------------------------------------|------------------------------------------------1010101010101010|101010101010101010101010111111111010101010101010-8-8-8-8-8-8-8-8|-8-8-8-8-8-8-8-8-8-8-8-8-8-8-8-8-8-8-8-8-8-8-8-8----------------|----------------------------------------------------------------|
---------------------------------|---------------------------------|---------------------------------|-8------8------8-----------------|-7-7777-7-7777-7-7777--8-10-8-10-|-----------------------6-8--6--8-| **** **** ****
------------------------------------------------------------------|------------------------------------------------------------------|------------------------------------------------------------------|-----------------------------------------------------------10-9---|-----444433334477774444334433--------444433334444---8-7--8-----10-|-3333-------------------------4~-3333-------------9----8----------| **************************** **************** * *
-------------------------------------------------------------------|-----------------------------------------------------------------ph|---------------------------------------------------10-9----10-12-10|------------------------------------------10-9---8------10---------|-----444433334477774444334433-6----8-7--8-----10-------------------|-3333-------------------------4--9----8----------------------------| **************************** * *
------------------------------------------------------------------|------------------------------------------------------------------|------------------------------------------------------------------|-----------------------------------------------------------10-9---|-----444433334477774444334433--------444433334444---8-7--8-----10-|-3333-------------------------4~-3333-------------9----8----------| **************************** **************** * *
-------------------------------------------------------------------|-----------------------------------------------------------------ph|---------------------------------------------------10-9----10-12-10|------------------------------------------10-9---8------10---------|-----444433334477774444334433-6----8-7--8-----10-------------------|-3333-------------------------4--9----8----------------------------| **************************** * * *
-------------------------------------------------------------------|-------------------------------------------------------------------|-------------------------------------------------------------------|----------99999999-------------------------------------------------|------------------88888888999999996666666655555555-----------------|-66666666-----------------------------------------8888777744443333-| *****************************************************************
-------------------------------------------------------------------|-------------------------------------------------------------------|-------------------------------------------------------------------|----------99999999-------------------------------------------------|------------------888888889999999966666666555555558888666699998888-|-66666666----------------------------------------------------------| *****************************************************************
-------------------------------------------------------------------|-------------------------------------------------------------------|-------------------------------------------------------------------|----------99999999-------------------------------------------------|------------------88888888999999996666666655555555-----------------|-66666666-----------------------------------------8888777744443333-| *****************************************************************
-------------------------------------------------------------------|-------------------------------------------------------------------|-------------------------------------------------------------------|----------99999999-------------------------------------------------|------------------888888889999999966666666555555558888666699998888-|-66666666----------------------------------------------------------| *****************************************************************
---------------------------------------------------------------|---------------------------------------------------------------|---------------------------------------------------------------|---12-12-12-12-11-11-9-9-11-9-8--------------------------------|-2-10-10-10-10-9--9--7-7-9--7-6-10-10-10-10-10-9-9-9-9-6-6-6-6-|-0------------------------------8---8--8--8--8-7-7-7-7-4-4-4-4-|
-------------------------------------------------------------------|-------------------------------------------------------------------|-------------------------------------------------------------------|---12-12-12-12-11-11-9-9-11-9-8------------------------------------|-2-10-10-10-10-9--9--7-7-9--7-6-10-10-10-10-10-9-9-9-9-12-12-12-12-|-0------------------------------8---8--8--8--8-7-7-7-7-10-10-10-10-|
---------------------------------------------------------------|---------------------------------------------------------------|---------------------------------------------------------------|---12-12-12-12-11-11-9-9-11-9-8--------------------------------|-2-10-10-10-10-9--9--7-7-9--7-6-10-10-10-10-10-9-9-9-9-6-6-6-6-|-0------------------------------8---8--8--8--8-7-7-7-7-4-4-4-4-|
-------------------------------------------------------------------|-------------------------------------------------------------------|-------------------------------------------------------------------|---12-12-12-12-11-11-9-9-11-9-8------------------------------------|-2-10-10-10-10-9--9--7-7-9--7-6-10-10-10-10-10-9-9-9-9-12-12-12-12-|-0------------------------------8---8--8--8--8-7-7-7-7-10-10-10-10-|
------------------------------------------------------------|------------------------------------------------------------|------------------------------------------------------------|-8-8888-8-8888-8-8888-6-6-6-8-8888-8-8888-11-11-11-10-10-10-|-6-6666-6-6666-6-6666-4-4-4-6-6666-6-6666-9--9--9--8--8--8--|------------------------------------------------------------|
-----------------------------------------------------------|-----------------------------------------------------------|-----------------------------------------------_-----------|-8-8888-8-8888-8-8888-6-6-6-11-----10---------/ \----------|-6-6666-6-6666-6-6666-4-4-4--9-9999-8-8888-9-8-9-8-----8---|-----------------------------9-9999-8-8888---------9-6-----|
------------------------------------------------------------|------------------------------------------------------------|------------------------------------------------------------|-8-8888-8-8888-8-8888-6-6-6-8-8888-8-8888-11-11-11-10-10-10-|-6-6666-6-6666-6-6666-4-4-4-6-6666-6-6666-9--9--9--8--8--8--|------------------------------------------------------------|
-----------------------------------------------------------|-----------------------------------------------------------|-----------------------------------------------_-----------|-8-8888-8-8888-8-8888-6-6-6-11-----10---------/ \----------|-6-6666-6-6666-6-6666-4-4-4--9-9999-8-8888-9-8-9-8-----8---|-----------------------------9-9999-8-8888---------9-6-----|
------------------------------------------------------------|------------------------------------------------------------|------------------------------------------------------------|-8-8888-8-8888-8-8888-6-6-6-8-8888-8-8888-11-11-11-10-10-10-|-6-6666-6-6666-6-6666-4-4-4-6-6666-6-6666-9--9--9--8--8--8--|------------------------------------------------------------|
-----------------------------------------------------------|-----------------------------------------------------------|-----------------------------------------------_-----------|-8-8888-8-8888-8-8888-6-6-6-11-----10---------/ \----------|-6-6666-6-6666-6-6666-4-4-4--9-9999-8-8888-9-8-9-8-----8---|-----------------------------9-9999-8-8888---------9-6-----|
------------------------------------------------------------|------------------------------------------------------------|------------------------------------------------------------|-8-8888-8-8888-8-8888-6-6-6-8-8888-8-8888-11-11-11-10-10-10-|-6-6666-6-6666-6-6666-4-4-4-6-6666-6-6666-9--9--9--8--8--8--|------------------------------------------------------------|
-----------------------------------------------------------|-----------------------------------------------------------|-----------------------------------------------_-----------|-8-8888-8-8888-8-8888-6-6-6-11-----10---------/ \----------|-6-6666-6-6666-6-6666-4-4-4--9-9999-8-8888-9-8-9-8-----8---|-----------------------------9-9999-8-8888---------9-6-----|
-------------------------------------------------------------------|-------------------------------------------------------------------|-------------------------------------------------------------------|----------99999999-------------------------------------------------|------------------88888888999999996666666655555555-----------------|-66666666-----------------------------------------8888777744443333-| *****************************************************************
-------------------------------------------------------------------|-------------------------------------------------------------------|-------------------------------------------------------------------|----------99999999-------------------------------------------------|------------------888888889999999966666666555555558888666699998888-|-66666666----------------------------------------------------------| *****************************************************************
-------------------------------------------------------------------|-------------------------------------------------------------------|-------------------------------------------------------------------|----------99999999-------------------------------------------------|------------------88888888999999996666666655555555-----------------|-66666666-----------------------------------------8888777744443333-| *****************************************************************
-------------------------------------------------------------------|-------------------------------------------------------------------|-------------------------------------------------------------------|----------99999999-------------------------------------------------|------------------888888889999999966666666555555558888666699998888-|-66666666----------------------------------------------------------| *****************************************************************
----------------------------------------------------------------|----------------------------------------------------------------|------------------------------------------------1010101010101010|101010101010101010101010111111111010101010101010-8-8-8-8-8-8-8-8|-8-8-8-8-8-8-8-8-8-8-8-8-8-8-8-8-8-8-8-8-8-8-8-8----------------|----------------------------------------------------------------|
-------------------------------------------|-------------------------------------------|-------------------------------------11-11-|-9-----------111111111010101010101010-9-9--|-7--77777777-------------------------------|-------------------------------------------| ******** * * * * * * * * * * * *
----------------------------------------------------------------|----------------------------------------------------------------|------------------------------------------------1010101010101010|101010101010101010101010111111111010101010101010-8-8-8-8-8-8-8-8|-8-8-8-8-8-8-8-8-8-8-8-8-8-8-8-8-8-8-8-8-8-8-8-8----------------|----------------------------------------------------------------|
---------------------------------|---------------------------------|---------------------------------|-8------8------8-----------------|-7-7777-7-7777-7-7777--8-10-8-10-|-----------------------6-8--6--8-| **** **** ****
----------------------------------------------------------------|----------------------------------------------------------------|------------------------------------------------1010101010101010|101010101010101010101010111111111010101010101010-8-8-8-8-8-8-8-8|-8-8-8-8-8-8-8-8-8-8-8-8-8-8-8-8-8-8-8-8-8-8-8-8----------------|----------------------------------------------------------------|
-------------------------------------------|-------------------------------------------|-------------------------------------11-11-|-9-----------111111111010101010101010-9-9--|-7--77777777-------------------------------|-------------------------------------------| ******** * * * * * * * * * * * *
----------------------------------------------------------------|----------------------------------------------------------------|------------------------------------------------1010101010101010|101010101010101010101010111111111010101010101010-8-8-8-8-8-8-8-8|-8-8-8-8-8-8-8-8-8-8-8-8-8-8-8-8-8-8-8-8-8-8-8-8----------------|----------------------------------------------------------------|
---------------------------------|---------------------------------|---------------------------------|-8------8------8-----------------|-7-7777-7-7777-7-7777--8-10-8-10-|-----------------------6-8--6--8-| **** **** ****
------------------------------------------------------------------|------------------------------------------------------------------|------------------------------------------------------------------|-----------------------------------------------------------10-9---|-----444433334477774444334433--------444433334444---8-7--8-----10-|-3333-------------------------4~-3333-------------9----8----------| **************************** **************** * *
-------------------------------------------------------------------|-----------------------------------------------------------------ph|---------------------------------------------------10-9----10-12-10|------------------------------------------10-9---8------10---------|-----444433334477774444334433-6----8-7--8-----10-------------------|-3333-------------------------4--9----8----------------------------| **************************** * *
------------------------------------------------------------------|------------------------------------------------------------------|------------------------------------------------------------------|-----------------------------------------------------------10-9---|-----444433334477774444334433--------444433334444---8-7--8-----10-|-3333-------------------------4~-3333-------------9----8----------| **************************** **************** * *
-----------------------------------------------------------------|-----------------------------------------------------------------|---------------------------------------------------10-9----10-12-|------------------------------------------10-9---8------10-------|-----444433334477774444334433-6----8-7--8-----10-----------------|-3333-------------------------4--9----8--------------------------| **************************** * * *
||||||||||||||||||||||||||||||||||||||||||||||||||||||||||||||||| ||||||||||||||||||||||||||||||||||||||||||||||||||||||||||||||||| ||||||||||||||||||||||||||||||||||||||||||||||||||||||||||||||||| 03 NUN WITH THE ASTRAL HABIT
------------------------------------------------------------------|------------------------------------------------------------------|------------------------------------------------------------------|-----------------------------8888---------------------------------|-6666666666666666666688889999----7777777777777777--------99889988-|-------------------------------------------------88888888---------|
----------------------------------------------------------------|----------------------------------------------------------------|----------------------------------------------------------------|-----------------------------8888-------------------------------|-6666666666666666666688889999----7777777777777777-5-4-3--5-4-3--|--------------------------------------------------3-2-1--3-2-1--|
* * * * * *------------------------------------------------------------------|------------------------------------------------------------------|------------------------------------------------------------------|------------------------------------------------------------------|-66666666666666666666----5555-----------------------------8-7-6-4-|---------------------6666----6666555555555555555511111111-6-5-4---|
* * *-------------------------------------------------------------------------|-------------------------------------------------------------------------|-------------------------------------------------------------------------|------------------------------------------------12111010---10------------|66666666666666666666----5555--------------------10-9-8-8----8-4-7------9-|--------------------6666----66665555555555555555--------7-8---2-5--5-8-7\| * * * *
0:22------------------------------------------------------------|------------------------------------------------------------|------------------------------------------------------------|------------------------------------------------------------|-7--------------8---------------9--------------3--5--3-6-4--|-5-000000000000-6-00000000-5-8--7\000000000000-1--3--1-4-2--|
************ ******** * * ************ * *------------------------------------------------------------|------------------------------------------------------------|------------------------------------------------------------|------------------------------------------------------------|-7--------------8---------------9--------------3--5--3-6-4--|-5-000000000000-6-00000000-5-8--7\000000000000-1--3--1-4-2--|
************ ******** * * ************ * *------------------------------------------------------------|------------------------------------------------------------|------------------------------------------------------------|------------------------------------------------------------|-7--------------8---------------9--------------3--5--3-6-4--|-5-000000000000-6-00000000-5-8--7\000000000000-1--3--1-4-2--|
************ ******** * * ************ * *------------------------------------------------------------|------------------------------------------------------------|------------------------------------------------------------|---------------------------------------------------------2--|-7--------------8---------------9--------------3--5--3-6-4--|-5-000000000000-6-00000000-5-8--7\000000000000-1--3--1-4-2--| ************ ******** * * ************ * *
0:44--------------------------------------------------|--------------------------------------------------|--------------------------------------------------|--------------------------------------------------|-2-2-2-2-2-2-4-4-4-2-2-2-5-5-5-5-5-5-4-4-4-5-5-5--|--------------------------------------------------| * * * * * * * * * * * * * * * * * * * * * * * *
----------------------------------------------------------|----------------------------------------------------------|----------------------------------------------------------|--------------------------------^-------------------------|-2-2-2-2-2-2-4-4-4-2-2-2-5--4--5-4---7-77-7-77-7-77-7-77--|-----------------------------------7-5-55-5-55-5-55-5-55--|
* * * * * * * * * * * *-----------------------------------------------------------|-----------------------------------------------------------|-----------------------------------------------------------|-----------------------------------------------------------|------6------6------3-3-4--2222222244442222555555554445555-|-5555-4-5555-4-2222-1-1-2----------------------------------| **** **** **** *******************************
-----------------------------------------------------------------------|-----------------------------------------------------------------------|-----------------------------------------------------------------------|-----------------------^-----------------------------------------------|2222222244442222-5-4--5-4--7-77-7-77-7-77-7-77------6------6------3-3-4|-------------------------7-5-55-5-55-5-55-5-55-5555-4-5555-4-2222-1-1-2|**************** **** **** ****
1:05-----------------------------------------------------------------|-----------------------------------------------------------------|-----------------------------------------------------------------|-----------------------------------------------------------------|------5-------4-------8-------7-------5-------4-------8-------7--|-3333-3--3322-2--6666-6--6655-5--3333-3--3322-2--6666-6--6655-5--|
**** **** **** **** **** **** **** ****-----------------------------------------------------------------|-----------------------------------------------------------------|-----------------------------------------------------------------|-----------------------------------------------------------------|------5-------4-------8-------7-------5-------4-------8-------7--|-3333-3--3322-2--6666-6--6655-5--3333-3--3322-2--6666-6--6655-5--| **** **** **** **** **** **** **** ****
1:15------------------------------------------------------------------|------------------------------------------------------------------|------------------------------------------------------------------|-10101010101010101010101010101010-9-9-9-9-9-9-9-9-9-9-9-9-9-9-9-9-|--8-8-8-8-8-8-8-8-8-8-8-8-8-8-8-8-8-8-8-8-8-8-8-8-8-8-8-8-8-8-8-8-|------------------------------------------------------------------|
-----------------------------------------------------------------|-----------------------------------------------------------------|-----------------------------------------------------------------|-----------------------------------------8-8-8-8-7-7-5-5-7-7-7-7-|10101010101010101010101010101010-6-6-6-6-6-6-6-6-5-5-3-3-5-5-5-5-|-8-8-8-8-8-8-8-8-8-8-8-8-8-8-8-8-4-4-4-4-------------------------|
------------------------------------------------------------------|------------------------------------------------------------------|------------------------------------------------------------------|-10101010101010101010101010101010-9-9-9-9-9-9-9-9-9-9-9-9-9-9-9-9-|--8-8-8-8-8-8-8-8-8-8-8-8-8-8-8-8-8-8-8-8-8-8-8-8-8-8-8-8-8-8-8-8-|------------------------------------------------------------------|
-----------------------------------------------------------------|-----------------------------------------------------------------|-----------------------------------------------------------------|-----------------------------------------8-8-8-8-----------------|10101010101010101010101010101010-6-6-6-6-6-6-6-6-6-6-6-6-5-5-5-5-|-8-8-8-8-8-8-8-8-8-8-8-8-8-8-8-8-4-4-4-4---------4-4-4-4-3-3-3-3-|
------------------------------------------------------------------|------------------------------------------------------------------|------------------------------------------------------------------|-10101010101010101010101010101010-9-9-9-9-9-9-9-9-9-9-9-9-9-9-9-9-|--8-8-8-8-8-8-8-8-8-8-8-8-8-8-8-8-8-8-8-8-8-8-8-8-8-8-8-8-8-8-8-8-|------------------------------------------------------------------|
-----------------------------------------------------------------|-----------------------------------------------------------------|-----------------------------------------------------------------|-----------------------------------------8-8-8-8-7-7-5-5-7-7-7-7-|10101010101010101010101010101010-6-6-6-6-6-6-6-6-5-5-3-3-5-5-5-5-|-8-8-8-8-8-8-8-8-8-8-8-8-8-8-8-8-4-4-4-4-------------------------|
------------------------------------------------------------------|------------------------------------------------------------------|------------------------------------------------------------------|-10101010101010101010101010101010-9-9-9-9-9-9-9-9-9-9-9-9-9-9-9-9-|--8-8-8-8-8-8-8-8-8-8-8-8-8-8-8-8-8-8-8-8-8-8-8-8-8-8-8-8-8-8-8-8-|------------------------------------------------------------------|
-----------------------------------------------------------------|-----------------------------------------------------------------|-----------------------------------------------------------------|-----------------------------------------8-8-8-8-----------------|10101010101010101010101010101010-6-6-6-6-6-6-6-6-6-6-6-6-5-5-5-5-|-8-8-8-8-8-8-8-8-8-8-8-8-8-8-8-8-4-4-4-4---------4-4-4-4-3-3-3-3-|
-----------------|-----------------|-----------------|-----------------|-4--7-------9----|-2--5--5-8--7----| * *
1:38------------------------------------------------------------|------------------------------------------------------------|------------------------------------------------------------|------------------------------------------------------------|-7--------------8---------------9--------------3--5--3-6-4--|-5-000000000000-6-00000000-4-8--7\000000000000-1--3--1-4-2--|
************ ******** * * ************ * *------------------------------------------------------------|------------------------------------------------------------|------------------------------------------------------------|------------------------------------------------------------|-7--------------8---------------9--------------3--5--3-6-4--|-5-000000000000-6-00000000-5-8--7\000000000000-1--3--1-4-2--|
************ ******** * * ************ * *------------------------------------------------------------|------------------------------------------------------------|------------------------------------------------------------|------------------------------------------------------------|-7--------------8---------------9--------------3--5--3-6-4--|-5-000000000000-6-00000000-5-8--7\000000000000-1--3--1-4-2--|
************ ******** * * ************ * *------------------------------------------------------------|------------------------------------
Please rate this tab:
x1.0