Cradle Of Filth – Dusk And Her Embrace tab

Dusk and Her Embrace by CoF

Tabbed by tay



Tune down one whole step.

Riff 1

x 4

-------------------------------------------------------------------------------------------------------------------------------------7---7-7-7-7---7-7-7-10--10-10-10-9---9-9-9--7---7-7-7-7---7-7-7-10--10-10-10-9---9-9-9--5---5-5-5-5---5-5-5-8---8--8--8--7---7-7-7-
Riff 2 x 3
|-------------------||-5---------5---5-8-||---7-5-------7-----||-------7-----------||-------------------||-------------------|
| ||-------------------||-------------------||-------------------||-----------------5-||-7-5-------7-5-7---||-----8-5-----------|
x 1
|-5-----7---8-----7-||-------------------||-------------------||-------------------||-------------------||-------------------|
| ||-------------------||-------------------||-------------------||-----------------5-||-7-5-------7-5-7---||-----8-5-----------|
Riff 3 /w Riff 1 x 2
----------------------------------------5---------5---5-8---5---------5---5------5-4-------7---------5-4-------7---7--------7-------------------7-----------------------------------------------------------------------------------------
** Riff 1 ** Riff 4 /w Riff 1 ------------------------------------- ------------------------------------- ------------------------------------- ------------------------------------- ------------------------------------- -5---7-5---7-5-7-8---8-7-8-7---7-8-7-
-------------------------------------------------------------------------------------------------------------------------------------------------------------------------------5---5------5---7-5---7-5-7-8---8-7-8-------8-7-
------------------------------------- ------------------------------------- ------------------------------------- ------------------------------------- ------------------------------------- -5---7-5---7-5-7-8---8-7-8-7---7-8-7-
-------------------------------------------------------------------------------------------------------------------------------------------------------------------------------5----------5---7-5---7-5-7-8---8-7-8-----------
Riff 5
|-------------------------------||-------------------------------||-------------------------------||-------------------------------||-8---7---5---7-8-----------5---||-----------------8---7---8---5-|
| ||-------------------------------||-------------------------------||-------------------------------||-------------5-7---------------||-8---7---8-------7---5-----5---||-------------------------8---5-|
Riff 6 x 3
--------------------------------------------------------------------------------------------------------------------------------------------------------------------------------------------------------5----------------------------8---7-7-7-8-7---7-8-7-8-7-8-------------------------5------------------------------------8-7-7---8-7-7---8-8---5-
-----------------------------------------------------------------------------------------------------------------------------------------------------------------------------------------------------8-8-8-8-8-8-7-7-7-7-7-7-5-5-5-5-5-5-5-5-----7-8--------------------------------------------------
-----------------------------------------------------------------------------------------------------------------------------------------------------------------------------------------------------------------------------------5-5-5--------------8-8-8-8-8-8-7-7-7-7-7-7-8-8-8-------5-5-5-5-5-5-
Riff 7 skipped Riff 8
|-------------------------------------------------5---------------||-5------6----5-6-8---6---5-------6-------8---6-8------8--6-------||-----------------------------------------------------------------||-----------------------------------------------------------------||-----------------------------------------------------------------||-----------------------------------------------------------------|
| ||-----------------------------------------------------------------||-----------------------------------------------------------------||-----------------------------------------------------------------||-7-7-7-7-7-7-7-7-7-7-7-7-7-7-7-7-8-8-8-8-8-8-8-8-8-8-8-8-8-8-8-8-||-7-7-7-7-7-7-7-7-7-7-7-7-7-7-7-7-8-8-8-8-8-8-8-8-8-8-8-8-8-8-8-8-||-5-5-5-5-5-5-5-5-5-5-5-5-5-5-5-5-6-6-6-6-6-6-6-6-6-6-6-6-6-6-6-6-| 1 e + a 2 e + a 3 e + a 4 e + a 1 e + a 2 e + a 3 e + a 4 e + a
Riff 9 skipped Riff 10 x 4
------------------------------------------------------------------------------------------------------------------------------5------------------5-6-5---5-6-5-------8---7---8--6---------6-----------------------
Riff 11 x 4
-----------------------------------------------------------------------------------------------------------------------------------------------------------------------------------------------------------8-8-8-7-7-7-5-5-5-------5-5-5-7-7-7--------5-5-5-------------------8-8-8-------------8-8-8-
** Riff 10 ** Riff 12 - Bass x 8 -------------- -------------- -------------- -5------6---8- ** Riff 6 ** Riff 13 Guitar 1 repeats:
-0-7-8-10-0-7-8-10p8p7--------------------------------------------------------------------------------------------------------------------
Guitar 2
----------------------------------------------------------------2---9---5---4---5-4--2---9---5---4---5-4--0---7---3---2---3-2-
Riff 14 x 6
---------------------------------------------------------------------------------------------------------------------------------------------------------------------------------------------------------------------------------------------------------------------------------------------------------------------5-5-5-5-5-5-5-5--7-7-7-7-7-7-7-7-7-7-7-7-7-7-7-7-8-8-8-8-8-8-8-8----------------- 1 2 3 4 1 2 3 4
Please rate this tab:
x1.0