Cradle Of Filth - Pallid Reflection tab

CRADLE OF FILTH

PALLID REFLECTION

DGCFAD


TABBED BY andherembrace


-----------------------------------------------------------------|-5-5-5-5-5-5-5-5-5-5-5-5-5-5-5-5-5-5-5-5-5-5-5-5-4-4-4-4-5-5-7-7-|-4-4-4-4-4-4-4-4-4-4-4-4-4-4-4-4-5-5-5-5-5-5-5-5-5-5-5-5-5-5-5-5-|-----------------------------------------------------------------|-----------------------------------------------------------------|-----------------------------------------------------------------|
0:07-----------------------------------------------------------------|-5-5-5-5-5-5-5-5-5-5-5-5-5-5-5-5-5-5-5-5-5-5-5-5-4-4-4-4-5-5-7-7-|-4-4-4-4-4-4-4-4-4-4-4-4-4-4-4-4-5-5-5-5-5-5-5-5-5-5-5-5-5-5-5-5-|-----------------------------------------------------------------|-----------------------------------------------------------------|-----------------------------------------------------------------|
0:14
1------------------------------------------------------------------|------------------------------------------------------------------|--------------------------------------------------------__--------|-------------------------------------------------------/ \-------|7--7-7--9-10--9--7-7--9-10-9-7----7-9-10-9--12-10-9-10-9-10-9-7-9-|------------------------------8-----------------------------------|
2-----------------------------------------------------------------|-----------------------------------------------------------------|-----------------------------------------------------------------|---------------------------------5-5-5-5-5-5-5-5-5-5-5-5-5-5-5-5-|-2-2-2-2-2-2-2-2-2-2-2-2-2-2-2-2-3-3-3-3-3-3-3-3-3-3-3-3-3-3-3-3-|-0-0-0-0-0-0-0-0-0-0-0-0-0-0-0-0---------------------------------|
1-----------------------------------------------------------------|-----------------------------------------------------------------|-----------------------------------------------------------------|-------------------------------------------------------9---------|7--7-7--9-10--9--7-7--9-10-9-7----7-9-10-9--12-10-9-10---12-10-9-|------------------------------8----------------------------------|
2-----------------------------------------------------------------|-----------------------------------------------------------------|-----------------------------------------------------------------|---------------------------------5-5-5-5-5-5-5-5-5-5-5-5-5-5-5-5-|-2-2-2-2-2-2-2-2-2-2-2-2-2-2-2-2-3-3-3-3-3-3-3-3-3-3-3-3-3-3-3-3-|-0-0-0-0-0-0-0-0-0-0-0-0-0-0-0-0---------------------------------|
0:27
------------------------------------------------|------------------------------------------------|------------------------------------------------|------------------------------------------------|-2-----5-2-----5-4-2-----3------5-7------5-4-3--|-0-----3-0-----3-2-0-----1------3-5------3-2-1--|
------------------------------------------------|------------------------------------------------|------------------------------------------------|------------------------------------------------|-2-----5-2-----5-4-2-----3------5-7------5-4-3--|-0-----3-0-----3-2-0-----1------3-5------3-2-1--|
0:41
------------------------------------------------------------------|------------------------------------------------------------------|------------------------------------------------------------------|------------------------------------------------------------------|------------------------------------------------------------------|-0000000000003333000000003322000011111111111133335555555533221111-|
----------------------------------------------------------------|----------------------------------------------------------------|----------------------------------------------------------------|----------------------------------------------------------------|----------------------------------------------------------5-4-3-|-00000000000033330000000033220000111111111111333355555555-3-2-1-| * *
0:55
---------------------------------------------------------|---------------------------------------------------------|---------------------------------------------------------|-5--4----5-----5----5---5--4-----------222222555444222---|-3--2----3--2--3--2-3-2-3--2--222222333------------------|---------------------------------------------------------|
* * *---------------------------------------------------------|---------------------------------------------------------|---------------------------------------------------------|-5--4----5-----5----5---5--4-----------222222555444222---|-3--2----3--2--3--2-3-2-3--2--222222333------------------|---------------------------------------------------------| * * *
1:09
1------------------------------------------------------------------|------------------------------------------------------------------|--------------------------------------------------------__--------|-------------------------------------------------------/ \-------|7--7-7--9-10--9--7-7--9-10-9-7----7-9-10-9--12-10-9-10-9-10-9-7-9-|------------------------------8-----------------------------------|
2-----------------------------------------------------------------|-----------------------------------------------------------------|-----------------------------------------------------------------|---------------------------------5-5-5-5-5-5-5-5-5-5-5-5-5-5-5-5-|-2-2-2-2-2-2-2-2-2-2-2-2-2-2-2-2-3-3-3-3-3-3-3-3-3-3-3-3-3-3-3-3-|-0-0-0-0-0-0-0-0-0-0-0-0-0-0-0-0---------------------------------|
1-----------------------------------------------------------------|-----------------------------------------------------------------|-----------------------------------------------------------------|-------------------------------------------------------9---------|7--7-7--9-10--9--7-7--9-10-9-7----7-9-10-9--12-10-9-10---12-10-9-|------------------------------8----------------------------------|
2-----------------------------------------------------------------|-----------------------------------------------------------------|-----------------------------------------------------------------|---------------------------------5-5-5-5-5-5-5-5-5-5-5-5-5-5-5-5-|-2-2-2-2-2-2-2-2-2-2-2-2-2-2-2-2-3-3-3-3-3-3-3-3-3-3-3-3-3-3-3-3-|-0-0-0-0-0-0-0-0-0-0-0-0-0-0-0-0---------------------------------|
1:22
------------------------------------------------|------------------------------------------------|------------------------------------------------|------------------------------------------------|-2-----5-2-----5-4-2-----3------5-7------5-4-3--|-0-----3-0-----3-2-0-----1------3-5------3-2-1--|
* * *------------------------------------------------|------------------------------------------------|------------------------------------------------|------------------------------------------------|-2-----5-2-----5-4-2-----3------5-7------5-4-3--|-0-----3-0-----3-2-0-----1------3-5------3-2-1--| * * *
------------------------------------------------------------------|------------------------------------------------------------------|------------------------------------------------------------------|------------------------------------------------------------------|------------------------------------------------------------------|-0000000000003333000000003322000011111111111133335555555533221111-|
----------------------------------------------------------------|----------------------------------------------------------------|----------------------------------------------------------------|----------------------------------------------------------------|----------------------------------------------------------5-4-3-|-00000000000033330000000033220000111111111111333355555555-3-2-1-| * *
1:50
---------------------------------------------------------|---------------------------------------------------------|---------------------------------------------------------|-5--4----5-----5----5---5--4-----------222222555444222---|-3--2----3--2--3--2-3-2-3--2--222222333------------------|---------------------------------------------------------|
* * *------------------------------------------------------|------------------------------------------------------|------------------------------------------------------|-5--4----5-----5----5---5--4-----------222222---------|-3--2----3--2--3--2-3-2-3--2--222222333-------5-4-2---|----------------------------------------------3-2-0---| * * * * * *
2:04
------------------------------------------------------------------------|------------------------------------------------------------------------|------------------------------------------------------------------------|------------------------------------------------------------------------|-----2---4-5---2---4-----4-5-4-7-8-8-8-8-8-8-8-8-10-10-10-10-12-10-9-10-|-0-0-0-0-2-3-0-0-0-2-0-0-2-3-2-5-6-6-6-6-6-6-6-6--8--8--8--8------------| * * * * * * *
------------------------------------------------------------------------|------------------------------------------------------------------------|------------------------------------------------------------------------|------------------------------------------------------------------------|-----2---4-5---2---4-----4-5-4-7-8-8-8-8-8-8-8-8-10-10-10-10-12-10-9-10-|-0-0-0-0-2-3-0-0-0-2-0-0-2-3-2-5-6-6-6-6-6-6-6-6--8--8--8--8------------| * * * * * * *
2:17
1------------------------------------------------------------------|------------------------------------------------------------------|---------------------------------------------------------__-------|------------------------------------------------------ -/ \------|7--7-7--9-10--9--7-7--9-10-9-7----7-9-10-9--12-10-9-10-9-10-9-7-9-|------------------------------8-----------------------------------|
2-----------------------------------------------------------------|-----------------------------------------------------------------|-----------------------------------------------------------------|---------------------------------5-5-5-5-5-5-5-5-5-5-5-5-5-5-5-5-|-2-2-2-2-2-2-2-2-2-2-2-2-2-2-2-2-3-3-3-3-3-3-3-3-3-3-3-3-3-3-3-3-|-0-0-0-0-0-0-0-0-0-0-0-0-0-0-0-0---------------------------------|
1-----------------------------------------------------------------|-----------------------------------------------------------------|-----------------------------------------------------------------|-------------------------------------------------------9---------|7--7-7--9-10--9--7-7--9-10-9-7----7-9-10-9--12-10-9-10---12-10-9-|------------------------------8----------------------------------|
2-----------------------------------------------------------------|-----------------------------------------------------------------|-----------------------------------------------------------------|---------------------------------5-5-5-5-5-5-5-5-5-5-5-5-5-5-5-5-|-2-2-2-2-2-2-2-2-2-2-2-2-2-2-2-2-3-3-3-3-3-3-3-3-3-3-3-3-3-3-3-3-|-0-0-0-0-0-0-0-0-0-0-0-0-0-0-0-0---------------------------------|
2:31
1------------------------------------|------------------------------------|------------------------------------|-----5----7-9---5---7-----5---7-10--|------------------------------------|-0-0---0------0---0---0-0---0-------|
* * * * * * * * 2----------------------------------------------------------------------|----------------------------------------------------------------------|--------------------------------------------------------------__------|-------------------------------------------------------------/ \-----|----7---9-10---7---9-----7---9-10-----7---9-10---12-10-9-10-9-10-9-7-9|0-0---0------0---0---0-0---0------8-8---8------8----------------------|
* * * * * * * * * * * *3----------------------------------------------------------------------|----------------------------------------------------------------------|----------------------------------------------------------------------|-2-------------------------4-5-7-----------------10-9-7-9-7-9-7-5-7---|----------------------------------------------------------------------|----------------------------------------------------------------------|
1------------------------------------|------------------------------------|------------------------------------|-----5----7-9---5---7-----5---7-10--|------------------------------------|-0-0---0------0---0---0-0---0-------|
* * * * * * * * 2----------------------------------------------------------------------|----------------------------------------------------------------------|--------------------------------------------------------------__------|-------------------------------------------------------------/ \-----|----7---9-10---7---9-----7---9-10-----7---9-10---12-10-9-10-9-10-9-7-9|0-0---0------0---0---0-0---0------8-8---8------8----------------------|
* * * * * * * * * * * *3----------------------------------------------------------------------|----------------------------------------------------------------------|----------------------------------------------------------------------|-2-------------------------4-5-7-----------------10-9-7-9-7-9-7-5-7---|----------------------------------------------------------------------|----------------------------------------------------------------------|
2:45
----------------------------------------------------|----------------------------------------------------|----------------------------------------------------|----------------------------------------------------|-7------7-6-6-----6---6---6---6--6-6-6------6--6-6--|-8------8\7-7-----7---4---4---4--4-4-3------3--3-3--|
----------------------------------------------------|----------------------------------------------------|----------------------------------------------------|----------------------------------------------------|-7------7-6-6-----6---6---6---6--6-6-6------6--6-6--|-8------8\7-7-----7---4---4---4--4-4-3------3--3-3--|
3:12
--------------------0---0---0---0----|--------------------0----0---0---0---|--------------------0-----0---0------|-------------------------------------|-3--------4--33-2--------------------|-1--------2--11-0--------------------|
--------------------0---0---0---0--0---0---0--0---0---0--|--------------------0----0---0---0--0---0---0--0---0---0-|--------------------0-----0---0------0---0------0---0----|---------------------------------------------------------|-3--------4--33-2----------------------------------------|-1--------2--11-0----------------------------------------|
3:26
---------------------------------------------------------|---------------------------------------------------------|---------------------------------------------------------|-5--4----5-----5----5---5--4-----------222222555444222---|-3--2----3--2--3--2-3-2-3--2--222222333------------------|---------------------------------------------------------|
* * *---------------------------------------------------------|---------------------------------------------------------|---------------------------------------------------------|-5--4----5-----5----5---5--4-----------222222555444222---|-3--2----3--2--3--2-3-2-3--2--222222333------------------|---------------------------------------------------------| * * *
3:40
1------------------------------------------------------------------|------------------------------------------------------------------|------------------------------------------------------------------|-------------------------------------------------4/5-5/7-7/9-9/10-|-7--7-7-9-10---9-7-7---12-9-10----7-7-7--9-10-10------------------|------------------------------------------------------------------|
2-----------------------------------------------------------------|-----------------------------------------------------------------|-----------------------------------------------------------------|---------------------------------5-5-5-5-5-5-5-5-5-5-5-5-5-5-5-5-|-2-2-2-2-2-2-2-2-2-2-2-2-2-2-2-2-3-3-3-3-3-3-3-3-3-3-3-3-3-3-3-3-|-0-0-0-0-0-0-0-0-0-0-0-0-0-0-0-0---------------------------------|
1------------------------------------------------------------------|------------------------------------------------------------------|------------------------------------------------------------------|-------------------------------------------------4/5-5/7-7/9-9/10-|-7--7-7-9-10---9-7-7---12-9-10----7-7-7--9-10-10------------------|------------------------------------------------------------------|
2-----------------------------------------------------------------|-----------------------------------------------------------------|-----------------------------------------------------------------|---------------------------------5-5-5-5-5-5-5-5-5-5-5-5-5-5-5-5-|-2-2-2-2-2-2-2-2-2-2-2-2-2-2-2-2-3-3-3-3-3-3-3-3-3-3-3-3-3-3-3-3-|-0-0-0-0-0-0-0-0-0-0-0-0-0-0-0-0---------------------------------|
3:53
------------------------------------------------------------------------|------------------------------------------------------------------------|------------------------------------------------------------------------|------------------------------------------------------------------------|-----2---4-5---2---4-----4-5-4-7-8-8-8-8-8-8-8-8-10-10-10-10-12-10-9-10-|-0-0-0-0-2-3-0-0-0-2-0-0-2-3-2-5-6-6-6-6-6-6-6-6--8--8--8--8------------| * * * * * * *
------------------------------------------------------------------------|------------------------------------------------------------------------|------------------------------------------------------------------------|------------------------------------------------------------------------|-----2---4-5---2---4-----4-5-4-7-8-8-8-8-8-8-8-8-10-10-10-10-12-10-9-10-|-0-0-0-0-2-3-0-0-0-2-0-0-2-3-2-5-6-6-6-6-6-6-6-6--8--8--8--8------------| * * * * * * *
4:07
1-----------------------------------------------------------------|----------------------------------------------12---swell---------|--9--swell-----------------------fade----------------------------|-----------------------------------------------------------------|-----------------------------------------------------------------|-----------------------------------------------------------------|
2-----------------------------------------------------------------|-5-5-5-5-5-5-5-5-5-5-5-5-5-5-5-5-5-5-5-5-5-5-5-5-4-4-4-4-5-5-7-7-|-4-4-4-4-4-4-4-4-4-4-4-4-4-4-4-4-5-5-5-5-5-5-5-5-5-5-5-5-5-5-5-5-|-----------------------------------------------------------------|-----------------------------------------------------------------|-----------------------------------------------------------------|
1---------------------------------------------------------------|-13\12-12-----------------------12\8-8----------8\7-7----------|----------------------------------------------------------7----|---------------------------------------------------------------|---------------------------------------------------------------|---------------------------------------------------------------|
2-----------------------------------------------------------------|-5-5-5-5-5-5-5-5-5-5-5-5-5-5-5-5-5-5-5-5-5-5-5-5-4-4-4-4-5-5-7-7-|-4-4-4-4-4-4-4-4-4-4-4-4-4-4-4-4-5-5-5-5-5-5-5-5-5-5-5-5-5-5-5-5-|-----------------------------------------------------------------|-----------------------------------------------------------------|-----------------------------------------------------------------|
4:211---------------------------------------------------------------|---------------------------------------------------------------|-9------------------------------12---------11-----------7------|---------------------------------------------------------------|---------------------------------------------------------------|---------------------------------------------------------------|
2-----------------------------------------------------------------|-----------------------------------------------------------------|-----------------------------------------------------------------|---------------------------------5-5-5-5-5-5-5-5-5-5-5-5-5-5-5-5-|-2-2-2-2-2-2-2-2-2-2-2-2-2-2-2-2-3-3-3-3-3-3-3-3-3-3-3-3-3-3-3-3-|-0-0-0-0-0-0-0-0-0-0-0-0-0-0-0-0---------------------------------|
1 end of 1st solo---------------------------------------------------------------|-------------------------------------------------------10--12--|-9------------------------------12---------11------------------|---------------------------------------------------------------|---------------------------------------------------------------|---------------------------------------------------------------|
2-----------------------------------------------------------------|-----------------------------------------------------------------|-----------------------------------------------------------------|---------------------------------5-5-5-5-5-5-5-5-5-5-5-5-5-5-5-5-|-2-2-2-2-2-2-2-2-2-2-2-2-2-2-2-2-3-3-3-3-3-3-3-3-3-3-3-3-3-3-3-3-|-0-0-0-0-0-0-0-0-0-0-0-0-0-0-0-0---------------------------------|
4:34
1 __----------------------------------------/ \----------------------|--10-12---10-13---10-12---10-12-13-12-10-12-10--------------------|9-------9-------9-------9---------------------12----12\11-11--12-7|------------------------------------------------------------------|------------------------------------------------------------------|------------------------------------------------------------------|
2-----------------------------------------------------------------|-----------------------------------------------------------------|-----------------------------------------------------------------|---------------------------------5-5-5-5-5-5-5-5-5-5-5-5-5-5-5-5-|-2-2-2-2-2-2-2-2-2-2-2-2-2-2-2-2-3-3-3-3-3-3-3-3-3-3-3-3-3-3-3-3-|-0-0-0-0-0-0-0-0-0-0-0-0-0-0-0-0---------------------------------|
4:41
1 __----------------------------------------/ \----|--10-12---10-13---10-12---10-12-13-12-10-12-10--|9-------9-------9-------9-----------------------|------------------------------------------------|------------------------------------------------|------------------------------------------------|
cont. ____ / \-12----10----8----7----8-10-8-10-8-7-8-7-------|----10----10---10---10-------------------10-8--|-----------------------------------------------|-----------------------------------------------|-----------------------------------------------|-----------------------------------------------|
2-----------------------------------------------------------------|-----------------------------------------------------------------|-----------------------------------------------------------------|---------------------------------5-5-5-5-5-5-5-5-5-5-5-5-5-5-5-5-|-2-2-2-2-2-2-2-2-2-2-2-2-2-2-2-2-3-3-3-3-3-3-3-3-3-3-3-3-3-3-3-3-|-0-0-0-0-0-0-0-0-0-0-0-0-0-0-0-0---------------------------------|
4:48
1 __----------------------------------------/ \------|--10-12---10-13---10-12---10-12-13-12-10-12-10----|9-------9-------9-------9-------------------------|--------------------------------------------------|--------------------------------------------------|--------------------------------------------------|
cont.--------------------------------------------------|-12------^---12------^---12------^---12------^----|----14-12-14----14-12-14----14-12-14----14-12-14--|--------------------------------------------------|--------------------------------------------------|--------------------------------------------------|
cont--------------------------------------------------|-10------^---10------^---10------^---10------^----|----12-11-12----12-11-12----12-11-12----12-11-12--|--------------------------------------------------|--------------------------------------------------|--------------------------------------------------|
2-----------------------------------------------------------------|-----------------------------------------------------------------|-----------------------------------------------------------------|---------------------------------5-5-5-5-5-5-5-5-5-5-5-5-5-5-5-5-|-2-2-2-2-2-2-2-2-2-2-2-2-2-2-2-2-3-3-3-3-3-3-3-3-3-3-3-3-3-3-3-3-|-0-0-0-0-0-0-0-0-0-0-0-0-0-0-0-0---------------------------------|
4:55
1 __----------------------------------------/ \----|--10-12---10-13---10-12---10-12-13-12-10-12-10--|9-------9-------9-------9-----------------------|------------------------------------------------|------------------------------------------------|------------------------------------------------|
cont. ____ / \-12----10----8----7----8-10-8-10-8-7-8-7-------|----10----10---10---10-------------------10-8--|-----------------------------------------------|-----------------------------------------------|-----------------------------------------------|-----------------------------------------------|
2-----------------------------------------------------------------|-----------------------------------------------------------------|-----------------------------------------------------------------|---------------------------------5-5-5-5-5-5-5-5-5-5-5-5-5-5-5-5-|-2-2-2-2-2-2-2-2-2-2-2-2-2-2-2-2-3-3-3-3-3-3-3-3-3-3-3-3-3-3-3-3-|-0-0-0-0-0-0-0-0-0-0-0-0-0-0-0-0---------------------------------|
5:02
1 __----------------------------------------/ \----------------------|--10-12---10-13---10-12---10-12-13-12-10-12-10--------------------|9-------9-------9-------9---------------------12----12\11-11--12-7|------------------------------------------------------------------|------------------------------------------------------------------|------------------------------------------------------------------|
2-----------------------------------------------------------------|-----------------------------------------------------------------|-----------------------------------------------------------------|---------------------------------5-5-5-5-5-5-5-5-5-5-5-5-5-5-5-5-|-2-2-2-2-2-2-2-2-2-2-2-2-2-2-2-2-3-3-3-3-3-3-3-3-3-3-3-3-3-3-3-3-|-0-0-0-0-0-0-0-0-0-0-0-0-0-0-0-0---------------------------------|
1 __----------------------------------------/ \----|--10-12---10-13---10-12---10-12-13-12-10-12-10--|9-------9-------9-------9-----------------------|------------------------------------------------|------------------------------------------------|------------------------------------------------|
cont. ____ / \-12----10----8----7----8-10-8-10-8-7-8-7-------|----10----10---10---10-------------------10-8--|-----------------------------------------------|-----------------------------------------------|-----------------------------------------------|-----------------------------------------------|
2-----------------------------------------------------------------|-----------------------------------------------------------------|-----------------------------------------------------------------|---------------------------------5-5-5-5-5-5-5-5-5-5-5-5-5-5-5-5-|-2-2-2-2-2-2-2-2-2-2-2-2-2-2-2-2-3-3-3-3-3-3-3-3-3-3-3-3-3-3-3-3-|-0-0-0-0-0-0-0-0-0-0-0-0-0-0-0-0---------------------------------|
1 __----------------------------------------/ \----------------------|--10-12---10-13---10-12---10-12-13-12-10-12-10--------------------|9-------9-------9-------9---------------------12----12\11-11--12-7|------------------------------------------------------------------|------------------------------------------------------------------|------------------------------------------------------------------|
2-----------------------------------------------------------------|-----------------------------------------------------------------|-----------------------------------------------------------------|---------------------------------5-5-5-5-5-5-5-5-5-5-5-5-5-5-5-5-|-2-2-2-2-2-2-2-2-2-2-2-2-2-2-2-2-3-3-3-3-3-3-3-3-3-3-3-3-3-3-3-3-|-0-0-0-0-0-0-0-0-0-0-0-0-0-0-0-0---------------------------------|
1 __----------------------------------------/ \----|--10-12---10-13---10-12---10-12-13-12-10-12-10--|9-------9-------9-------9-----------------------|------------------------------------------------|------------------------------------------------|------------------------------------------------|
cont. ____ / \-12----10----8----7----8-10-8-10-8-7-8-7-------|----10----10---10---10-------------------10-8--|-----------------------------------------------|-----------------------------------------------|-----------------------------------------------|-----------------------------------------------|
2-----------------------------------------------------------------|-----------------------------------------------------------------|-----------------------------------------------------------------|---------------------------------5-5-5-5-5-5-5-5-5-5-5-5-5-5-5-5-|-2-2-2-2-2-2-2-2-2-2-2-2-2-2-2-2-3-3-3-3-3-3-3-3-3-3-3-3-3-3-3-3-|-0-0-0-0-0-0-0-0-0-0-0-0-0-0-0-0---------------------------------|
Tap to rate this tab
 
# A B C D E F G H I J K L M N O P Q R S T U V W X Y Z