Cradle Of Filth – Nightmares Of An Ether Drinker tab

CRADLE OF FILTH

NIGHTMARES OF AN ETHER DRINKER

DGCFAD


TABBED BY andherembrace




-------------------------------------------------------------|-------------------------------------------------------------|-------------------------------------------------------------|--^-----^-----^---^-----^-----^---^-----^-----^--------------|-5-7---7-8---575-3-5---5-7---787-5-7---7-8---575-5-8-5-5-3---|-----0-----0---------0-----0---------0-----0-----3-6-3-3-1---| * * * * * * * *
----------------------------------------------------------------|----------------------------------------------------------------|----------------------------------------------------------------|--^-----^-----^---^-----^-----^---^-----^-----^-----------------|-5-7---7-8---575-3-5---5-7---787-5-7---7-8---575-5-------8-7-5--|-----0-----0---------0-----0---------0-----0-------8-7-5-------8| * * * * * *
0:10-------------------------------------------------------------|-------------------------------------------------------------|-------------------------------------------------------------|--^-----^-----^---^-----^-----^---^-----^-----^--------------|-5-7---7-8---575-3-5---5-7---787-5-7---7-8---575-5-8-5-5-3---|-----0-----0---------0-----0---------0-----0-----3-6-3-3-1---| * * * * * * * *
----------------------------------------------------------------|----------------------------------------------------------------|----------------------------------------------------------------|--^-----^-----^---^-----^-----^---^-----^-----^-----------------|-5-7---7-8---575-3-5---5-7---787-5-7---7-8---575---------8-7-5--|-----0-----0---------0-----0---------0-----0-----3-6-5-3-------8| * * * * * *
0:19-------------------------------------------------------------------------|-------------------------------------------------------------------------|-------------------------------------------------------------------------|----10---9-----12--10-----9---9-10----10-9-------12-12-12-12-14-14-15-14-|-----8---7-----10---8-----7---7/-8-----8-7-------10-10-10-10-12-12-13-12-|-0-0---0---0-0----0---0-0---0------0-0-----0-0-0-------------------------| * * * * * * * * * * * * * *
------------------------------------------------------------|------------------------------------------------------------|------------------------------------------------------------|----10---9-----12--10-----9---9-10--------------------------|-----8---7-----10---8-----7---7/-8-----5-4--7-5--8-7--5-7---|-0-0---0---0-0----0---0-0---0------0-0-3\2--5-3--6-5--3-5---| * * * * * * * * * * *
-------------------------------------------------------------------------|-------------------------------------------------------------------------|-------------------------------------------------------------------------|----10---9-----12--10-----9---9-10----10-9-------12-12-12-12-14-14-15-14-|-----8---7-----10---8-----7---7/-8-----8-7-------10-10-10-10-12-12-13-12-|-0-0---0---0-0----0---0-0---0------0-0-----0-0-0-------------------------| * * * * * * * * * * * * * *
------------------------------------------------------------|------------------------------------------------------------|------------------------------------------------------------|----10---9-----12--10-----9---9-10--------------------------|-----8---7-----10---8-----7---7/-8-----5-4--7-5--8-7--5-7---|-0-0---0---0-0----0---0-0---0------0-0-3\2--5-3--6-5--3-5---| * * * * * * * * * * *
0:38-------------------------------------------------------|-------------------------------------------------------|-------------------------------------------------------|-8888-7777-------------------8888-7777-----------------|-6666-5555-10---9--10-9-10-9-6666-5555--2--3--6-5-6-5--|-6666-5555--8---7---8-7--8-7-6666-5555--0--1--4-3-4-3--|
-------------------------------------------------------|-------------------------------------------------------|-------------------------------------------------------|-8888-7777-------------------8888-7777-----------------|-6666-5555-10---9--10-9-10-9-6666-5555--2--3--6-5-6-5--|-6666-5555--8---7---8-7--8-7-6666-5555--0--1--4-3-4-3--|
-------------------------------------------------------|-------------------------------------------------------|-------------------------------------------------------|-8888-7777-------------------8888-7777-----------------|-6666-5555-10---9--10-9-10-9-6666-5555--2--3--6-5-6-5--|-6666-5555--8---7---8-7--8-7-6666-5555--0--1--4-3-4-3--|
-------------------------------------------------------|-------------------------------------------------------|-------------------------------------------------------|-8888-7777-------------------8888-7777-----------------|-6666-5555-10---9--10-9-10-9-6666-5555--2--3--6-5-6-5--|-6666-5555--8---7---8-7--8-7-6666-5555--0--1--4-3-4-3--|
0:57---------------------------------|---------------------------------|---------------------------------|-------------------------p-------|------------^-------------s\-----|-000000000-131-000000000---------|
1:00-------------------------------------------------------------|-------------------------------------------------------------|-------------------------------------------------------------|--^-----^-----^---^-----^-----^---^-----^-----^--------------|-5-7---7-8---575-3-5---5-7---787-5-7---7-8---575-5-8-5-5-3---|-----0-----0---------0-----0---------0-----0-----3-6-3-3-1---| * * * * * * * *
----------------------------------------------------------------|----------------------------------------------------------------|----------------------------------------------------------------|--^-----^-----^---^-----^-----^---^-----^-----^-----------------|-5-7---7-8---575-3-5---5-7---787-5-7---7-8---575-5-------8-7-5--|-----0-----0---------0-----0---------0-----0-------8-7-5-------8| * * * * * *
-------------------------------------------------------------|-------------------------------------------------------------|-------------------------------------------------------------|--^-----^-----^---^-----^-----^---^-----^-----^--------------|-5-7---7-8---575-3-5---5-7---787-5-7---7-8---575-5-8-5-5-3---|-----0-----0---------0-----0---------0-----0-----3-6-3-3-1---| * * * * * * * *
----------------------------------------------------------------|----------------------------------------------------------------|----------------------------------------------------------------|--^-----^-----^---^-----^-----^---^-----^-----^-----------------|-5-7---7-8---575-3-5---5-7---787-5-7---7-8---575---------8-7-5--|-----0-----0---------0-----0---------0-----0-----3-6-5-3-------8| * * * * * *
1:20-------------------------------------------------------------------------|-------------------------------------------------------------------------|-------------------------------------------------------------------------|----10---9-----12--10-----9---9-10----10-9-------12-12-12-12-14-14-15-14-|-----8---7-----10---8-----7---7/-8-----8-7-------10-10-10-10-12-12-13-12-|-0-0---0---0-0----0---0-0---0------0-0-----0-0-0-------------------------| * * * * * * * * * * * * * *
------------------------------------------------------------|------------------------------------------------------------|------------------------------------------------------------|----10---9-----12--10-----9---9-10--------------------------|-----8---7-----10---8-----7---7/-8-----5-4--7-5--8-7--5-7---|-0-0---0---0-0----0---0-0---0------0-0-3\2--5-3--6-5--3-5---| * * * * * * * * * * *
-------------------------------------------------------------------------|-------------------------------------------------------------------------|-------------------------------------------------------------------------|----10---9-----12--10-----9---9-10----10-9-------12-12-12-12-14-14-15-14-|-----8---7-----10---8-----7---7/-8-----8-7-------10-10-10-10-12-12-13-12-|-0-0---0---0-0----0---0-0---0------0-0-----0-0-0-------------------------| * * * * * * * * * * * * * *
------------------------------------------------------------|------------------------------------------------------------|------------------------------------------------------------|----10---9-----12--10-----9---9-10--------------------------|-----8---7-----10---8-----7---7/-8-----5-4--7-5--8-7--5-7---|-0-0---0---0-0----0---0-0---0------0-0-3\2--5-3--6-5--3-5---| * * * * * * * * * * *
1:38-------------------------------------------------------|-------------------------------------------------------|-------------------------------------------------------|-8888-7777-------------------8888-7777-----------------|-6666-5555-10---9--10-9-10-9-6666-5555--2--3--6-5-6-5--|-6666-5555--8---7---8-7--8-7-6666-5555--0--1--4-3-4-3--|
-------------------------------------------------------|-------------------------------------------------------|-------------------------------------------------------|-8888-7777-------------------8888-7777-----------------|-6666-5555-10---9--10-9-10-9-6666-5555--2--3--6-5-6-5--|-6666-5555--8---7---8-7--8-7-6666-5555--0--1--4-3-4-3--|
-------------------------------------------------------|-------------------------------------------------------|-------------------------------------------------------|-8888-7777-------------------8888-7777-----------------|-6666-5555-10---9--10-9-10-9-6666-5555--2--3--6-5-6-5--|-6666-5555--8---7---8-7--8-7-6666-5555--0--1--4-3-4-3--|
-------------------------------------------------------|-------------------------------------------------------|-------------------------------------------------------|-8888-7777-------------------8888-7777-----------------|-6666-5555-10---9--10-9-10-9-6666-5555--2--3--6-5-6-5--|-6666-5555--8---7---8-7--8-7-6666-5555--0--1--4-3-4-3--|
1:57--------------------------------------------|--------------------------------------------|--------------------------------------------|-999999999999-1091010-999999999999-12121212-|-777777777777--87-8-8-777777777777-10101010-|--------------------------------------------|
-------------------------------------|-------------------------------------|-------------------------------------|-66666666-77777777--9-10-9-----------|-44444444-55555555--7--8-7-8-7-------|---------------------------6-5-------|
2:02-----------------------------------------------------------|-----------------------------------------------------------|-----------------------------------------------------------|-----------------------------------------------------------|-5-2-2----5---4---5-5-2-2----5---4---5-5-2-2----5---4---5--|-3-0-0-00-3-0-2-0-3-3-0-0-00-3-0-2-0-3-3-0-0-00-3-0-2-0-3--| ** * * ** * * ** * *
-------------------------------------|-------------------------------------|-------------------------------------|-------------------------------------|-3-3-3-3-3-3-3-3-7-7-7-7-6-6----6----|-1-1-1-1-1-1-1-1-5-5-5-5-4-4-55-4----| **
-----------------------------------------------------------|-----------------------------------------------------------|-----------------------------------------------------------|-----------------------------------------------------------|-5-2-2----5---4---5-5-2-2----5---4---5-5-2-2----5---4---5--|-3-0-0-00-3-0-2-0-3-3-0-0-00-3-0-2-0-3-3-0-0-00-3-0-2-0-3--| ** * * ** * * ** * *
-------------------------------------|-------------------------------------|-------------------------------------|-------------------------------------|-3-3-3-3-3-3-3-3-7-7-7-7-6-6----6----|-1-1-1-1-1-1-1-1-5-5-5-5-4-4-55-4----| **
2:26------------------------------------------------------------------------|------------------------------------------------------------------------|------------------------------------------------------------------------|-----------------------------_------------------------------------------|----------------------------/ \---------5-5--5-6-5------------------6-5-|0-1-3-4--4-4-3--5-8-5-4--5-4-5-4-1--0-1-3-3--3-4-3-0-1-3-4-0-1-0134-4-3-|
------------------------------------------------------------------------|------------------------------------------------------------------------|------------------------------------------------------------------------|-----------------------------_------------------------------------------|----------------------------/ \---------5-5--5-6-5------------------6-5-|0-1-3-4--4-4-3--5-8-5-4--5-4-5-4-1--0-1-3-3--3-4-3-0-1-3-4-0-1-0134-4-3-|
------------------------------------------------------------------------|------------------------------------------------------------------------|------------------------------------------------------------------------|-----------------------------_------------------------------------------|----------------------------/ \---------5-5--5-6-5------------------6-5-|0-1-3-4--4-4-3--5-8-5-4--5-4-5-4-1--0-1-3-3--3-4-3-0-1-3-4-0-1-0134-4-3-|
2:57--------------------------------------------|--------------------------------------------|--------------------------------------------|-999999999999-1091010-999999999999-12121212-|-777777777777--87-8-8-777777777777-10101010-|--------------------------------------------|
------------------------------------------|------------------------------------------|------------------------------------------|-66666666-77777777--------------__--------|-44444444-55555555--7----------/ \-------|----------------------10-8-10-8-10-8-7-5--|
3:02------------------------------------------------------------------|------------------------------------------------------------------|------------------------------------------------------------------|------------------------------------------------------------------|--^-----^-----^---^-----^-----^---^-----^-----^-------------------|-5-7-0-7-8-0-575-3-5-0-5-7-0-787-5-7-0-7-8-0-575-5-3-2-3-8-7-5-7--| * * * * * *
-----------------------------------------------------------------------|-----------------------------------------------------------------------|-----------------------------------------------------------------------|-----------------------------------------------------------------------|-9-9-9-9-10-10-9-9--5-7---7-9---9-10--9-9-9-9-10-10-9-9-5-------8-7-5--|-7-7-7-7--8--8-7-7--3-5-0-5-7-0-7--8--7-7-7-7--8--8-7-7---8-7-5-------8| * *
-------------------------------------------------------------|-------------------------------------------------------------|-------------------------------------------------------------|--^-----^-----^---^-----^-----^---^-----^-----^--------------|-5-7---7-8---575-3-5---5-7---787-5-7---7-8---575-5-8-5-5-3---|-----0-----0---------0-----0---------0-----0-----3-6-3-3-1---| * * * * * * * *
---------------------------------------------------------------------|---------------------------------------------------------------------|---------------------------------------------------------------------|--^-----^-----^---^-----^-----^---^-----^-----^--------------__------|-5-7---7-8---575-3-5---5-7---787-5-7---7-8---575-7----------/ \-----|-----0-----0---------0-----0---------0-----0-------10-8-10-8-10-8-7-5| * * * * * *
------------------------------------------------------------------|------------------------------------------------------------------|------------------------------------------------------------------|------------------------------------------------------------------|--^-----^-----^---^-----^-----^---^-----^-----^-------------------|-5-7-0-7-8-0-575-3-5-0-5-7-0-787-5-7-0-7-8-0-575-5-3-2-3-8-7-5-7--| * * * * * *
-----------------------------------------------------------------------|-----------------------------------------------------------------------|-----------------------------------------------------------------------|-----------------------------------------------------------------------|-9-9-9-9-10-10-9-9--5-7---7-9---9-10--9-9-9-9-10-10-9-9-5-------8-7-5--|-7-7-7-7--8--8-7-7--3-5-0-5-7-0-7--8--7-7-7-7--8--8-7-7---8-7-5-------8| * *
-------------------------------------------------------------|-------------------------------------------------------------|-------------------------------------------------------------|--^-----^-----^---^-----^-----^---^-----^-----^--------------|-5-7---7-8---575-3-5---5-7---787-5-7---7-8---575-5-8-5-5-3---|-----0-----0---------0-----0---------0-----0-----3-6-3-3-1---| * * * * * * * *
---------------------------------------------------------------------|---------------------------------------------------------------------|---------------------------------------------------------------------|--^-----^-----^---^-----^-----^---^-----^-----^--------------__------|-5-7---7-8---575-3-5---5-7---787-5-7---7-8---575-7----------/ \-----|-----0-----0---------0-----0---------0-----0-------10-8-10-8-10-8-7-5| * * * * * *
3:40-------------------------------------------------------------------------|-------------------------------------------------------------------------|-------------------------------------------------------------------------|----10---9-----12--10-----9---9-10----10-9-------12-12-12-12-14-14-15-14-|-----8---7-----10---8-----7---7/-8-----8-7-------10-10-10-10-12-12-13-12-|-0-0---0---0-0----0---0-0---0------0-0-----0-0-0-------------------------| * * * * * * * * * * * * * *
------------------------------------------------------------|------------------------------------------------------------|------------------------------------------------------------|----10---9-----12--10-----9---9-10--------------------------|-----8---7-----10---8-----7---7/-8-----5-4--7-5--8-7--5-7---|-0-0---0---0-0----0---0-0---0------0-0-3\2--5-3--6-5--3-5---| * * * * * * * * * * *
-------------------------------------------------------------------------|-------------------------------------------------------------------------|-------------------------------------------------------------------------|----10---9-----12--10-----9---9-10----10-9-------12-12-12-12-14-14-15-14-|-----8---7-----10---8-----7---7/-8-----8-7-------10-10-10-10-12-12-13-12-|-0-0---0---0-0----0---0-0---0------0-0-----0-0-0-------------------------| * * * * * * * * * * * * * *
------------------------------------------------------------|------------------------------------------------------------|------------------------------------------------------------|----10---9-----12--10-----9---9-10--------------------------|-----8---7-----10---8-----7---7/-8-----5-4--7-5--8-7--5-7---|-0-0---0---0-0----0---0-0---0------0-0-3\2--5-3--6-5--3-5---| * * * * * * * * * * *
3:59-----------------------------------------------------------|-----------------------------------------------------------|-----------------------------------------------------------|-----------------------------------------------------------|-5-2-2----5---4---5-5-2-2----5---4---5-5-2-2----5---4---5--|-3-0-0-00-3-0-2-0-3-3-0-0-00-3-0-2-0-3-3-0-0-00-3-0-2-0-3--| ** * * ** * * ** * *
-------------------------------------|-------------------------------------|-------------------------------------|-------------------------------------|-3-3-3-3-3-3-3-3-7-7-7-7-6-6----6----|-1-1-1-1-1-1-1-1-5-5-5-5-4-4-55-4----| **
-----------------------------------------------------------|-----------------------------------------------------------|-----------------------------------------------------------|-----------------------------------------------------------|-5-2-2----5---4---5-5-2-2----5---4---5-5-2-2----5---4---5--|-3-0-0-00-3-0-2-0-3-3-0-0-00-3-0-2-0-3-3-0-0-00-3-0-2-0-3--| ** * * ** * * ** * *
-------------------------------------|-------------------------------------|-------------------------------------|-------------------------------------|-3-3-3-3-3-3-3-3-7-7-7-7-6-6----6----|-1-1-1-1-1-1-1-1-5-5-5-5-4-4-55-4----| **
Please rate this tab:
x1.0