Cradle Of Filth - Thirteen Autumns And A Widow tab


Esta cancion se toca con la guitarra afinada dos trastes abajo de Mi creo que es
en Re no estoy seguro

*******************************************************

|-----------------------------------------------------||-----------------------------------------------------||-----------------------------------------------------||--5-5-5-5-5-5-5-5-5-5-5-5-5-5-5-5-5-5-5-5=====-------||--3-3-3-3-3-3-3-3-3-3-3-3-3-3-3-3-3-3-3-3=====5---4--||----------------------------------------------3---2--|
|-----------------------------------------------------||-----------------------------------------------------||-----------------------------------------------------||--5-5-5-5-5-5-5-5-5-5-5-5-5-5-5-5-5-5-5-5=====-------||--3-3-3-3-3-3-3-3-3-3-3-3-3-3-3-3-3-3-3-3=====5---3--||----------------------------------------------3---1--|
|-----------------------------------------------------||-----------------------------------------------------||-----------------------------------------------------||--5-5-5-5-5-5-5-5-5-5-5-5-5-5-5-5-5-5-5-5=====6---5--||--3-3-3-3-3-3-3-3-3-3-3-3-3-3-3-3-3-3-3-3=====4---3--||-----------------------------------------------------|
|--------------------------------------------------------------------------||--------------------------------------------------------------------------||--------------------------------------------------------------------------||--4=====3=====4=====3=====3-3-3-3-3-3-3-3-3-3-3-3-3-3-3-3-3-3-3-3-3-3-3-3-||--4=====3=====4=====3=====1-1-1-1-1-1-1-1-1-1-1-1-1-1-1-1-1-1-1-1-1-1-1-1-||--2=====1=====2=====1=====------------------------------------------------|
|--------------------------------------------------------------------------||--------------------------------------------------------------------------||--------------------------------------------------------------------------||--4=====3=====4=====3=====3-3-3-3-3-3-3-3-3-3-3-3-3-3-3-3-3-3-3-3-3-3-3-3-||--4=====3=====4=====3=====1-1-1-1-1-1-1-1-1-1-1-1-1-1-1-1-1-1-1-1-1-1-1-1-||--2=====1=====2=====1=====------------------------------------------------|
|--------------------------------------------------------------------------||--------------------------------------------------------------------------||--------------------------------------------------------------------------||--4=====3=====4=====3=====3-3-3-3-3-3-3-3-3-3-3-3-3-3-3-3-3-3-3-3-3-3-3-3-||--4=====3=====4=====3=====1-1-1-1-1-1-1-1-1-1-1-1-1-1-1-1-1-1-1-1-1-1-1-1-||--2=====1=====2=====1=====------------------------------------------------|
|--------------------------------------------------------------------------||--------------------------------------------------------------------------||--------------------------------------------------------------------------||--4=====3=====4=====3=====3-3-3-3-3-3-3-3-3-3-3-3-3-3-3-3-3-3-3-3-3-3-3-3-||--4=====3=====4=====3=====1-1-1-1-1-1-1-1-1-1-1-1-1-1-1-1-1-1-1-1-1-1-1-1-||--2=====1=====2=====1=====------------------------------------------------|
|-------------------------------------------------------------||-------------------------------------------------------------||-------------------------------------------------------------||-------------------------------------------------------------||-4-4-4-4-4-4-4-4-4-4-4-4-4-4-4-4-4-4-4-4-4-4-4-4-4-4-4-4-4-4-||-2-2-2-2-2-2-2-2-2-2-2-2-2-2-2-2-2-2-2-2-2-2-2-2-2-2-2-2-2-2-|
|-------------------------------------------------------------||-------------------------------------------------------------||-------------------------------------------------------------||-5-5-5-5-5-5-5-5-5-5-5-5-5-5-5-5-5-5-5-5-5-5-5-5-5-5-5-5-5-5-||-3-3-3-3-3-3-3-3-3-3-3-3-3-3-3-3-3-3-3-3-3-3-3-3-3-3-3-3-3-3-||-------------------------------------------------------------|
|-------------------------------------------------------------||-------------------------------------------------------------||-------------------------------------------------------------||-------------------------------------------------------------||-4-4-4-4-4-4-4-4-4-4-4-4-4-4-4-4-4-4-4-4-4-4-4-4-4-4-4-4-4-4-||-2-2-2-2-2-2-2-2-2-2-2-2-2-2-2-2-2-2-2-2-2-2-2-2-2-2-2-2-2-2-|
|-----------------------------------------------------||-----------------------------------------------------||-----------------------------------------------------||--5-5-5-5-5-5-5-5-5-5-5-5-5-5-5-5-5-5-5-5=====-------||--3-3-3-3-3-3-3-3-3-3-3-3-3-3-3-3-3-3-3-3=====5---3--||----------------------------------------------3---1--|
|-----------------------------------------------------||-----------------------------------------------------||-----------------------------------------------------||--5-5-5-5-5-5-5-5-5-5-5-5-5-5-5-5-5-5-5-5=====6---5--||--3-3-3-3-3-3-3-3-3-3-3-3-3-3-3-3-3-3-3-3=====4---3--||-----------------------------------------------------|
|--------------------------------------------------------------------------||--------------------------------------------------------------------------||--------------------------------------------------------------------------||--4=====3=====4=====3=====3-3-3-3-3-3-3-3-3-3-3-3-3-3-3-3-3-3-3-3-3-3-3-3-||--4=====3=====4=====3=====1-1-1-1-1-1-1-1-1-1-1-1-1-1-1-1-1-1-1-1-1-1-1-1-||--2=====1=====2=====1=====------------------------------------------------|
|--------------------------------------------------------------------------||--------------------------------------------------------------------------||--------------------------------------------------------------------------||--4=====3=====4=====3=====3-3-3-3-3-3-3-3-3-3-3-3-3-3-3-3-3-3-3-3-3-3-3-3-||--4=====3=====4=====3=====1-1-1-1-1-1-1-1-1-1-1-1-1-1-1-1-1-1-1-1-1-1-1-1-||--2=====1=====2=====1=====------------------------------------------------|
|--------------------------------------------------------------------------||--------------------------------------------------------------------------||--------------------------------------------------------------------------||--4=====3=====4=====3=====3-3-3-3-3-3-3-3-3-3-3-3-3-3-3-3-3-3-3-3-3-3-3-3-||--4=====3=====4=====3=====1-1-1-1-1-1-1-1-1-1-1-1-1-1-1-1-1-1-1-1-1-1-1-1-||--2=====1=====2=====1=====------------------------------------------------|
|--------------------------------------------------------------------------||--------------------------------------------------------------------------||--------------------------------------------------------------------------||--4=====3=====4=====3=====3-3-3-3-3-3-3-3-3-3-3-3-3-3-3-3-3-3-3-3-3-3-3-3-||--4=====3=====4=====3=====1-1-1-1-1-1-1-1-1-1-1-1-1-1-1-1-1-1-1-1-1-1-1-1-||--2=====1=====2=====1=====------------------------------------------------|
Esta parte es a dos guitarras, aqui van las dos guitarras y una adaptación para una guitarra Primera guitarra
|------------------------------------------------------||------------------------------------------------------||------------------------------------------------------||--5-0-5-0-5-0-7-0-8-0-8-0-8-0-8-0-8-0-10-0-12-0-12-0--||------------------------------------------------------||------------------------------------------------------|
|--------------------------------------------||--------------------------------------------||----7-7-7-7-7---5-5-5----7-7-7-7-7---5-5-5~-||--------------------------------------------||--6--------------------5--------------------||--------------------------------------------|
Segunda guitarra
|---------------------------------------------------||---------------------------------------------------||---------------------------------------------------||--5-0-5-0-5-0-7-0-8-0-8-0-5-0-5-0-5-0-7-0-8-0-8-0--||---------------------------------------------------||---------------------------------------------------|
|--------------------------------------------||--------------------------------------------||--------------------------------------------||----8-8-8-8-8---7-7-7----8-8-8-8-8---7-7-7~-||--6--------------------5--------------------||--------------------------------------------|
Adaptación
|---------------------------------------------------||---------------------------------------------------||--------------------------3---3---3---5---7---7----||--5-0-5-0-5-0-7-0-8-0-8-0-5-0-5-0-5-0-7-0-8-0-8-0--||---------------------------------------------------||---------------------------------------------------|
|--------------------------------------------||--------------------------------------------||----7-7-7-7-7--5-5-5----7-7-7-7-7--5-5-5~~--||----8-8-8-8-8--7-7-7----8-8-8-8-8--7-7-7~~--||--6-------------------5---------------------||--------------------------------------------|
***************************************************
|-------------------------------------------------||-------------------------------------------------||--7-7-7-7-7-7-7-5-5-3-3-2-2-2-2-2-2-2-2-2-2-2-2--||--0-0-0-0-0-0-0-0-0-0-0-0-0-0-0-0-0-0-0-0-0-0-0--||-------------------------------------------------||-------------------------------------------------|
|-------------------------------------------------||-------------------------------------------------||--5-5-5-5-5-5-5-3-3-2-2-0-0-0-0-0-0-0-0-0-0-0-0--||--7-7-7-7-7-7-7-5-5-3-3-2-2-2-2-2-2-2-2-2-2-2-2--||--0-0-0-0-0-0-0-0-0-0-0-0-0-0-0-0-0-0-0-0-0-0-0--||-------------------------------------------------|
|---------------------------------------------||---------------------------------------------||---------------------------------------------||--7-7-7-7-7-7-7-8-7-7-7-7-7-7-7-7-7-7-7-7-7--||--5-5-5-5-5-5-5-6-5-5-5-5-5-5-5-5-5-5-5-5-5--||---------------------------------------------|
|--------------------------------------------------------------------||--------------------------------------------------------------------||--------------------------------------------------------------------||--------------------------------------------------------------------||--8----8--8--8---7----7--7--7---10----10-10-10---10-10-10-10-10-10--||--6----6--6--6---5----5--5--5----8----8--8--8----8--8--8--8--8--8---|
|-------------------------------------------------||-------------------------------------------------||--7-7-7-7-7-7-7-5-5-3-3-2-2-2-2-2-2-2-2-2-2-2-2--||--0-0-0-0-0-0-0-0-0-0-0-0-0-0-0-0-0-0-0-0-0-0-0--||-------------------------------------------------||-------------------------------------------------|
|-------------------------------------------------||-------------------------------------------------||--5-5-5-5-5-5-5-3-3-2-2-0-0-0-0-0-0-0-0-0-0-0-0--||--7-7-7-7-7-7-7-5-5-3-3-2-2-2-2-2-2-2-2-2-2-2-2--||--0-0-0-0-0-0-0-0-0-0-0-0-0-0-0-0-0-0-0-0-0-0-0--||-------------------------------------------------|
|---------------------------------------------||---------------------------------------------||---------------------------------------------||--7-7-7-7-7-7-7-8-7-7-7-7-7-7-7-7-7-7-7-7-7--||--5-5-5-5-5-5-5-6-5-5-5-5-5-5-5-5-5-5-5-5-5--||---------------------------------------------|
|--------------------------------------------------------------------||--------------------------------------------------------------------||--------------------------------------------------------------------||--------------------------------------------------------------------||--8----8--8--8---7----7--7--7---10----10-10-10---10-10-10-10-10-10--||--6----6--6--6---5----5--5--5----8----8--8--8----8--8--8--8--8--8---|
Esta parte tambien es a dos guitarras pero esta es diferente por que si la adapto para guitarra suena raro. Primera guitarra
|--------------------------------------------------------------------------||--------------------------------------------------------------------------||--10----9----------10---9-------10-9-10----9-10-9----10---9------9-7-9----||--------------7-------------7--------------------------------7------------||--------------------------------------------------------------------------||--------------------------------------------------------------------------|
------------------------------------------------|------------------------------------------------|--7-9-7----9---7-------10-9-10-----b9(10)---9---|-------------------7----------------------------|------------------------------------------------|------------------------------------------------|
En las dos siguientes partes se toca lo mismo pero moviendo el pick rapidamente, lo pero es que me da pereza Segunda guitarra Esta parte tambien es con el pick a toda, pero esta es la segunda parte, en la primera solo los armonicos
|-----------------------------------------------------------||-----------------------------------------------------------||-----------------------------------------------------------||-----------------------------------------------------------||--5------7--8--5-0------7--8---------7--8--5--------7--8---||------------------------------8--------------3-------------|
**************************************************************
|---------------------------------------------------||---------------------------------------------------||--------------------------3---3---3---5---7---7----||--5-0-5-0-5-0-7-0-8-0-8-0-5-0-5-0-5-0-7-0-8-0-8-0--||---------------------------------------------------||---------------------------------------------------|
|--------------------------------------------||--------------------------------------------||----7-7-7-7-7--5-5-5----7-7-7-7-7--5-5-5~~--||----8-8-8-8-8--7-7-7----8-8-8-8-8--7-7-7~~--||--6-------------------5---------------------||--------------------------------------------|
|---------------------------------------------------||---------------------------------------------------||--------------------------3---3---3---5---7---7----||--5-0-5-0-5-0-7-0-8-0-8-0-5-0-5-0-5-0-7-0-8-0-8-0--||---------------------------------------------------||---------------------------------------------------|
|--------------------------------------------||--------------------------------------------||----7-7-7-7-7--5-5-5----7-7-7-7-7--5-5-5~~--||----8-8-8-8-8--7-7-7----8-8-8-8-8--7-7-7~~--||--6-------------------5---------------------||--------------------------------------------|
|---------------------------------------------------||---------------------------------------------------||--------------------------3---3---3---5---7---7----||--5-0-5-0-5-0-7-0-8-0-8-0-5-0-5-0-5-0-7-0-8-0-8-0--||---------------------------------------------------||---------------------------------------------------|
|--------------------------------------------||--------------------------------------------||----7-7-7-7-7--5-5-5----7-7-7-7-7--5-5-5~~--||----8-8-8-8-8--7-7-7----8-8-8-8-8--7-7-7~~--||--6-------------------5---------------------||--------------------------------------------|
|---------------------------------------------------||---------------------------------------------------||--------------------------3---3---3---5---7---7----||--5-0-5-0-5-0-7-0-8-0-8-0-5-0-5-0-5-0-7-0-8-0-8-0--||---------------------------------------------------||---------------------------------------------------|
|--------------------------------------------||--------------------------------------------||----7-7-7-7-7--5-5-5----7-7-7-7-7--5-5-5~~--||----8-8-8-8-8--7-7-7----8-8-8-8-8--7-7-7~~--||--6-------------------5---------------------||--------------------------------------------|
|-------------------------------------------------||-------------------------------------------------||--7-7-7-7-7-7-7-5-5-3-3-2-2-2-2-2-2-2-2-2-2-2-2--||--0-0-0-0-0-0-0-0-0-0-0-0-0-0-0-0-0-0-0-0-0-0-0--||-------------------------------------------------||-------------------------------------------------|
|-------------------------------------------------||-------------------------------------------------||--5-5-5-5-5-5-5-3-3-2-2-0-0-0-0-0-0-0-0-0-0-0-0--||--7-7-7-7-7-7-7-5-5-3-3-2-2-2-2-2-2-2-2-2-2-2-2--||--0-0-0-0-0-0-0-0-0-0-0-0-0-0-0-0-0-0-0-0-0-0-0--||-------------------------------------------------|
|---------------------------------------------||---------------------------------------------||---------------------------------------------||--7-7-7-7-7-7-7-8-7-7-7-7-7-7-7-7-7-7-7-7-7--||--5-5-5-5-5-5-5-6-5-5-5-5-5-5-5-5-5-5-5-5-5--||---------------------------------------------|
|--------------------------------------------------------------------||--------------------------------------------------------------------||--------------------------------------------------------------------||--------------------------------------------------------------------||--8----8--8--8---7----7--7--7---10----10-10-10---10-10-10-10-10-10--||--6----6--6--6---5----5--5--5----8----8--8--8----8--8--8--8--8--8---|
|-------------------------------------------------||-------------------------------------------------||--7-7-7-7-7-7-7-5-5-3-3-2-2-2-2-2-2-2-2-2-2-2-2--||--0-0-0-0-0-0-0-0-0-0-0-0-0-0-0-0-0-0-0-0-0-0-0--||-------------------------------------------------||-------------------------------------------------|
|-------------------------------------------------||-------------------------------------------------||--5-5-5-5-5-5-5-3-3-2-2-0-0-0-0-0-0-0-0-0-0-0-0--||--7-7-7-7-7-7-7-5-5-3-3-2-2-2-2-2-2-2-2-2-2-2-2--||--0-0-0-0-0-0-0-0-0-0-0-0-0-0-0-0-0-0-0-0-0-0-0--||-------------------------------------------------|
|---------------------------------------------||---------------------------------------------||---------------------------------------------||--7-7-7-7-7-7-7-8-7-7-7-7-7-7-7-7-7-7-7-7-7--||--5-5-5-5-5-5-5-6-5-5-5-5-5-5-5-5-5-5-5-5-5--||---------------------------------------------|
|--------------------------------------------------------------------||--------------------------------------------------------------------||--------------------------------------------------------------------||--------------------------------------------------------------------||--8----8--8--8---7----7--7--7---10----10-10-10---10-10-10-10-10-10--||--6----6--6--6---5----5--5--5----8----8--8--8----8--8--8--8--8--8---|
|--------------------------------------------------------------------------||--------------------------------------------------------------------------||--10----9----------10---9-------10-9-10----9-10-9----10---9------9-7-9----||--------------7-------------7--------------------------------7------------||--------------------------------------------------------------------------||--------------------------------------------------------------------------|
------------------------------------------------|------------------------------------------------|--7-9-7----9---7-------10-9-10-----b9(10)---9---|-------------------7----------------------------|------------------------------------------------|------------------------------------------------|
|-----------------------------------------------------------||-----------------------------------------------------------||-----------------------------------------------------------||-----------------------------------------------------------||--5------7--8--5-0------7--8---------7--8--5--------7--8---||------------------------------8--------------3-------------|
|------------------------------------------------------------------||------------------------------------------------------------------||------------------------------------------------------------------||------------------------------------------------------------------||--5------7--8--5-0------7--8---------7--8--5--------8-10-7-8-7-5--||------------------------------8--------------3--------------------|
Al tocar las x se debe hacer con los dedos en la pocición que esta entre parentesis de la x
|---------------------------------------------------------------------------||---------------------------------------------------------------------------||--7--x(7)-x(7)-x(7)-7--x(7)-x(7)-x(7)--------------------------------------||--7--x(7)-x(7)-x(7)-7--x(7)-x(7)-x(7)-7--x(7)-x(7)-x(7)-7--x(7)-x(7)-x(7)--||--5--x(5)-x(5)-x(5)-5--x(5)-x(5)-x(5)-7--x(7)-x(7)-x(7)-7--x(7)-x(7)-x(7)--||--------------------------------------5--x(5)-x(5)-x(5)-5--x(5)-x(5)-x(5)--|
-------------------------------------------------------------------------|-------------------------------------------------------------------------|-------------------------------------------------------------------------|--5--x(5)-x(5)-x(5)-5--x(5)-x(5)-x(5)--x(7)-x(7)-x(7)--x(8)-x(8)-x(8)-8--|--5--x(5)-x(5)-x(5)-5--x(5)-x(5)-x(5)--x(7)-x(7)-x(7)--x(8)-x(8)-x(8)-8--|--3--x(3)-x(3)-x(3)-3--x(3)-x(3)-x(3)--x(3)-x(5)-x(5)--x(6)-x(6)-x(6)-6--|
------------------------|------------------------|------------------------|--x(10)-x(10)-x(10)-10--|--x(10)-x(10)-x(10)-10--|--x(8)--x(8)--x(8)--8---|
|---------------------------------------------------------------------------||---------------------------------------------------------------------------||--7--x(7)-x(7)-x(7)-7--x(7)-x(7)-x(7)--------------------------------------||--7--x(7)-x(7)-x(7)-7--x(7)-x(7)-x(7)-7--x(7)-x(7)-x(7)-7--x(7)-x(7)-x(7)--||--5--x(5)-x(5)-x(5)-5--x(5)-x(5)-x(5)-7--x(7)-x(7)-x(7)-7--x(7)-x(7)-x(7)--||--------------------------------------5--x(5)-x(5)-x(5)-5--x(5)-x(5)-x(5)--|
-------------------------------------------------------------------------|-------------------------------------------------------------------------|-------------------------------------------------------------------------|--5--x(5)-x(5)-x(5)-5--x(5)-x(5)-x(5)--x(7)-x(7)-x(7)--x(8)-x(8)-x(8)-8--|--5--x(5)-x(5)-x(5)-5--x(5)-x(5)-x(5)--x(7)-x(7)-x(7)--x(8)-x(8)-x(8)-8--|--3--x(3)-x(3)-x(3)-3--x(3)-x(3)-x(3)--x(3)-x(5)-x(5)--x(6)-x(6)-x(6)-6--|
------------------------|------------------------|------------------------|--x(10)-x(10)-x(10)-10--|--x(10)-x(10)-x(10)-10--|--x(8)--x(8)--x(8)--8---|
|---------------------------------------------------------------------------||---------------------------------------------------------------------------||--7--x(7)-x(7)-x(7)-7--x(7)-x(7)-x(7)--------------------------------------||--7--x(7)-x(7)-x(7)-7--x(7)-x(7)-x(7)-7--x(7)-x(7)-x(7)-7--x(7)-x(7)-x(7)--||--5--x(5)-x(5)-x(5)-5--x(5)-x(5)-x(5)-7--x(7)-x(7)-x(7)-7--x(7)-x(7)-x(7)--||--------------------------------------5--x(5)-x(5)-x(5)-5--x(5)-x(5)-x(5)--|
-------------------------------------------------------------------------|-------------------------------------------------------------------------|-------------------------------------------------------------------------|--5--x(5)-x(5)-x(5)-5--x(5)-x(5)-x(5)--x(7)-x(7)-x(7)--x(8)-x(8)-x(8)-8--|--5--x(5)-x(5)-x(5)-5--x(5)-x(5)-x(5)--x(7)-x(7)-x(7)--x(8)-x(8)-x(8)-8--|--3--x(3)-x(3)-x(3)-3--x(3)-x(3)-x(3)--x(3)-x(5)-x(5)--x(6)-x(6)-x(6)-6--|
------------------------|------------------------|------------------------|--x(10)-x(10)-x(10)-10--|--x(10)-x(10)-x(10)-10--|--x(8)--x(8)--x(8)--8---|
|---------------------------------------------------------------------------||---------------------------------------------------------------------------||--7--x(7)-x(7)-x(7)-7--x(7)-x(7)-x(7)--------------------------------------||--7--x(7)-x(7)-x(7)-7--x(7)-x(7)-x(7)-7--x(7)-x(7)-x(7)-7--x(7)-x(7)-x(7)--||--5--x(5)-x(5)-x(5)-5--x(5)-x(5)-x(5)-7--x(7)-x(7)-x(7)-7--x(7)-x(7)-x(7)--||--------------------------------------5--x(5)-x(5)-x(5)-5--x(5)-x(5)-x(5)--|
-------------------------------------------------------------------------|-------------------------------------------------------------------------|-------------------------------------------------------------------------|--5--x(5)-x(5)-x(5)-5--x(5)-x(5)-x(5)--x(7)-x(7)-x(7)--x(8)-x(8)-x(8)-8--|--5--x(5)-x(5)-x(5)-5--x(5)-x(5)-x(5)--x(7)-x(7)-x(7)--x(8)-x(8)-x(8)-8--|--3--x(3)-x(3)-x(3)-3--x(3)-x(3)-x(3)--x(3)-x(5)-x(5)--x(6)-x(6)-x(6)-6--|
------------------------|------------------------|------------------------|--x(10)-x(10)-x(10)-10--|--x(10)-x(10)-x(10)-10--|--x(8)--x(8)--x(8)--8---|
|--------------------------------------------------------------------||--------------------------------------------------------------------||--------------------------------------------------------------------||--------------------------------------------------------------------||--9-7-0-10-7-0-9-7-0-10-7-0-9-7-0-10-7-0-9-7-0-10-7-0-9-7-0-10-7-0--||--------------------------------------------------------------------|
|-----------------------------------------------------------------||-----------------------------------------------------------------||-----------------------------------------------------------------||-----------------------------------------------------------------||--x(9)-x(7)-x(0)-x(10)-x(7)-x(0)-x(9)-x(7)-x(0)-x(10)-x(7)-x(0)--||-----------------------------------------------------------------|
|---------------------------------------------------------------------------||---------------------------------------------------------------------------||---------------------------------------------------------------------------||---------------------------------------------------------------------------||-9-7-7-7-7-7-9-7-7-7-7-7-9-7-7-10-7-7-9-7-7-7-7-7--7-----------7-----------||-----------------------------------------------------8-8-8-8-8---8-8-8-8-8-|
------------------------------|------------------------------|------------------------------|--7---------------------------|----10-9-10-9-7-9-7---7-9-10--|--------------------8---------|
|---------------------------------------------------------------------------||---------------------------------------------------------------------------||---------------------------------------------------------------------------||---------------------------------------------------------------------------||-9-7-7-7-7-7-9-7-7-7-7-7-9-7-7-10-7-7-9-7-7-7-7-7--7-----------7-----------||-----------------------------------------------------8-8-8-8-8---8-8-8-8-8-|
------------------------------|------------------------------|------------------------------|--7---------------------------|----10-9-10-9-7-9-7---7-9-10--|--------------------8---------|
|-7-0-0-8-0-0-7-0-0-8-0-0-7-0-0-8-0-0-7-0-0-8-0-0-10-0-0-12-0-0-10-0-0-12-||-------------------------------------------------------------------------||-------------------------------------------------------------------------||-------------------------------------------------------------------------||-------------------------------------------------------------------------||-------------------------------------------------------------------------|
-0-0-13-12-10-12-10-8-10-8-7-8-7-5--|------------------------------------|------------------------------------|------------------------------------|------------------------------------|------------------------------------|
|--------------------------------------------------------------------||--------------------------------------------------------------------||--------------------------------------------------------------------||--------------------------------------------------------------------||--9-7-0-10-7-0-9-7-0-10-7-0-9-7-0-10-7-0-9-7-0-10-7-0-9-7-0-10-7-0--||--------------------------------------------------------------------|
|---------------------------------------------------------------------------||---------------------------------------------------------------------------||--7--x(7)-x(7)-x(7)-7--x(7)-x(7)-x(7)--------------------------------------||--7--x(7)-x(7)-x(7)-7--x(7)-x(7)-x(7)-7--x(7)-x(7)-x(7)-7--x(7)-x(7)-x(7)--||--5--x(5)-x(5)-x(5)-5--x(5)-x(5)-x(5)-7--x(7)-x(7)-x(7)-7--x(7)-x(7)-x(7)--||--------------------------------------5--x(5)-x(5)-x(5)-5--x(5)-x(5)-x(5)--|
-------------------------------------------------------------------------|-------------------------------------------------------------------------|-------------------------------------------------------------------------|--5--x(5)-x(5)-x(5)-5--x(5)-x(5)-x(5)--x(7)-x(7)-x(7)--x(8)-x(8)-x(8)-8--|--5--x(5)-x(5)-x(5)-5--x(5)-x(5)-x(5)--x(7)-x(7)-x(7)--x(8)-x(8)-x(8)-8--|--3--x(3)-x(3)-x(3)-3--x(3)-x(3)-x(3)--x(3)-x(5)-x(5)--x(6)-x(6)-x(6)-6--|
------------------------|------------------------|------------------------|--x(10)-x(10)-x(10)-10--|--x(10)-x(10)-x(10)-10--|--x(8)--x(8)--x(8)--8---|
|----------------------------------------------------------------------------||----------------------------------------------------------------------------||--7--x(7)-x(7)-x(7)-7--x(7)-x(7)-x(7)---------------------------------------||--7--x(7)-x(7)-x(7)-7--x(7)-x(7)-x(7)-7--x(7)-x(7)-x(7)-7--x(7)-x(7)-x(7)---||--5--x(5)-x(5)-x(5)-5--x(5)-x(5)-x(5)-7--x(7)-x(7)-x(7)-7--x(7)-x(7)-x(7)---||--------------------------------------5--x(5)-x(5)-x(5)-5--x(5)-x(5)-x(5)---|
-------------------------------------------------------------------------|-------------------------------------------------------------------------|-------------------------------------------------------------------------|--5--x(5)-x(5)-x(5)-5--x(5)-x(5)-x(5)--x(7)-x(7)-x(7)--x(8)-x(8)-x(8)-8--|--5--x(5)-x(5)-x(5)-5--x(5)-x(5)-x(5)--x(7)-x(7)-x(7)--x(8)-x(8)-x(8)-8--|--3--x(3)-x(3)-x(3)-3--x(3)-x(3)-x(3)--x(3)-x(5)-x(5)--x(6)-x(6)-x(6)-6--|
------------------------|------------------------|------------------------|--x(10)-x(10)-x(10)-10--|--x(10)-x(10)-x(10)-10--|--x(8)--x(8)--x(8)--8---|
|---------------------------------------------------------------------------||---------------------------------------------------------------------------||--7--x(7)-x(7)-x(7)-7--x(7)-x(7)-x(7)--------------------------------------||--7--x(7)-x(7)-x(7)-7--x(7)-x(7)-x(7)-7--x(7)-x(7)-x(7)-7--x(7)-x(7)-x(7)--||--5--x(5)-x(5)-x(5)-5--x(5)-x(5)-x(5)-7--x(7)-x(7)-x(7)-7--x(7)-x(7)-x(7)--||--------------------------------------5--x(5)-x(5)-x(5)-5--x(5)-x(5)-x(5)--|
-------------------------------------------------------------------------|-------------------------------------------------------------------------|-------------------------------------------------------------------------|--5--x(5)-x(5)-x(5)-5--x(5)-x(5)-x(5)--x(7)-x(7)-x(7)--x(8)-x(8)-x(8)-8--|--5--x(5)-x(5)-x(5)-5--x(5)-x(5)-x(5)--x(7)-x(7)-x(7)--x(8)-x(8)-x(8)-8--|--3--x(3)-x(3)-x(3)-3--x(3)-x(3)-x(3)--x(3)-x(5)-x(5)--x(6)-x(6)-x(6)-6--|
------------------------|------------------------|------------------------|--x(10)-x(10)-x(10)-10--|--x(10)-x(10)-x(10)-10--|--x(8)--x(8)--x(8)--8---|
|---------------------------------------------------------------------------||---------------------------------------------------------------------------||--7--x(7)-x(7)-x(7)-7--x(7)-x(7)-x(7)--------------------------------------||--7--x(7)-x(7)-x(7)-7--x(7)-x(7)-x(7)-7--x(7)-x(7)-x(7)-7--x(7)-x(7)-x(7)--||--5--x(5)-x(5)-x(5)-5--x(5)-x(5)-x(5)-7--x(7)-x(7)-x(7)-7--x(7)-x(7)-x(7)--||--------------------------------------5--x(5)-x(5)-x(5)-5--x(5)-x(5)-x(5)--|
-------------------------------------------------------------------------|-------------------------------------------------------------------------|-------------------------------------------------------------------------|--5--x(5)-x(5)-x(5)-5--x(5)-x(5)-x(5)--x(7)-x(7)-x(7)--x(8)-x(8)-x(8)-8--|--5--x(5)-x(5)-x(5)-5--x(5)-x(5)-x(5)--x(7)-x(7)-x(7)--x(8)-x(8)-x(8)-8--|--3--x(3)-x(3)-x(3)-3--x(3)-x(3)-x(3)--x(3)-x(5)-x(5)--x(6)-x(6)-x(6)-6--|
------------------------|------------------------|------------------------|--x(10)-x(10)-x(10)-10--|--x(10)-x(10)-x(10)-10--|--x(8)--x(8)--x(8)--8---|
|----------------------------------||----------------------------------||----------------------------------||----------------------------------||------------6----5--6--5----------||-3----5--6------------------6--5--|
Lo demas son solo notas elevadas en octavas weredemon_666@hotmail.com (messenger, hi5) weredemon_666@yahoo.com (myspace)
Tap to rate this tab
 
# A B C D E F G H I J K L M N O P Q R S T U V W X Y Z