Cradle Of Filth - Lord Abortion tab

Intro:{Paul}   X4

|----------------------------------------------||----------------------------------------------||----------------------------------------------||-7-7-7-7-7-7-7-7-7-7-7-7-9-9-9-9-9-9-----8----||-5-5-5-5-5-5-5-5-5-5-5-5-7-7-7-7-7-7---7---7--||-5-5-5-5-5-5-5-5-5-5-5-5-7-7-7-7-7-7-5--------|
|-----------------------------------------------------------||-----------------------------------------------------------||-----------------------------------------------------------||-7-7-7-7-7-7-7-7-7-7-7-7-11-11-11-11-11-11-9-9-9-9-9-9-X---||-5-5-5-5-5-5-5-5-5-5-5-5--9--9--9--9--9--9-7-7-7-7-7-7-X---||-5-5-5-5-5-5-5-5-5-5-5-5--9--9--9--9--9--9-7-7-7-7-7-7-X---|
Intro:{Gian}X4
|--------------------------------------------------||--------------------------------------------------||--------------------------------------------------||-7-7-7-7-7-7-7-7-7-7-7-7-9-9-9-9-9-9-8-8-8-8-8-8--||-5-5-5-5-5-5-5-5-5-5-5-5-7-7-7-7-7-7-6-6-6-6-6-6--||-5-5-5-5-5-5-5-5-5-5-5-5-7-7-7-7-7-7-6-6-6-6-6-6--|
|------------------------------------------------------------||------------------------------------------------------------||------------------------------------------------------------||-7-7-7-7-7-7-7-7-7-7-7-7-11-11-11-11-11-11-9-9-9-9-9-9--X---||-5-5-5-5-5-5-5-5-5-5-5-5--9--9--9--9--9--9-7-7-7-7-7-7--X---||-5-5-5-5-5-5-5-5-5-5-5-5--9--9--9--9--9--9-7-7-7-7-7-7--X---|
|--------------------------------------------||--------------------------------------------||--------------------------------------------||-------7-------7-8-7-------7----------------||-----------------------------------8-7-8----|\|-5-5-5---5-5-5-------8-8-8---6-6-6----------| \
. . . . . . . . . . . . X4 /|--------------------------------------------|/|--------------------------------------------||--------------------------------------------||-------7-------7-8-7------------------------||---------------------------7-------8-7-8----||-5-5-5---5-5-5-------8-8-8---6-6-6----------| . . . . . . . . . . . .
|---------------------||---------------------||---------------------| X4|---------------------||---7---9---11-12-11--||-0-5-0-7-0--9-10--9--|
|--------------------------||--------------------------||--------------------------||--------------------------| X4|-----5-----7-----9-10-9---||-0-0-3-0-0-5-0-0-7--8-7---|
|-------------------------------------------------------------||-------------------------------------------------------------||-------------------------------------------------------------||-11-11-11-11-11-11-11-11-11-11-12-12-12-12-12-12-12-12-12-12-||--9--9--9--9--9--9--9--9--9--9-10-10-10-10-10-10-10-10-10-10-||--9--9--9--9--9--9--9--9--9--9-10-10-10-10-10-10-10-10-10-10-|
|-------------------------------------------------------------||-------------------------------------------------------------||-------------------------------------------------------------||-13-13-13-13-13-13-13-13-13-13-14-14-14-14-14-14-14-14-14-14-||-11-11-11-11-11-11-11-11-11-11-12-12-12-12-12-12-12-12-12-12-||-11-11-11-11-11-11-11-11-11-11-12-12-12-12-12-12-12-12-12-12-|
|---------------------------------------------------||---------------------------------------------------||---------------------------------------------------||-9-9-9-9-9-9-9-9-9-9-10-10-10-10-10-10-10-10-10-10-||-7-7-7-7-7-7-7-7-7-7--8--8--8--8--8--8--8--8--8--8-||-7-7-7-7-7-7-7-7-7-7--8--8--8--8--8--8--8--8--8--8-|
|-------------------------------------------------------------||-------------------------------------------------------------||-------------------------------------------------------------||-11-11-11-11-11-11-11-11-11-11-12-12-12-12-12-12-12-12-12-12-||--9--9--9--9--9--9--9--9--9--9-10-10-10-10-10-10-10-10-10-10-||--9--9--9--9--9--9--9--9--9--9-10-10-10-10-10-10-10-10-10-10-|
|---------------------||---------------------||---------------------| X4|---------------------||---7---9---11-12-11--||-0-5-0-7-0--9-10--9--|
|--------------------------||--------------------------||--------------------------| X4|-----5-----7-----9-10-9---||-0-0-3-0-0-5-0-0-7--8-7---||--------------------------|
|--------------------------------------------||--------------------------------------------||--------------------------------------------||-------7-------7-8-7-------7----------------||-----------------------------------8-7-8----|\|-5-5-5---5-5-5-------8-8-8---6-6-6----------| \
. . . . . . . . . . . . X4 /|--------------------------------------------|/|--------------------------------------------||--------------------------------------------||-------7-------7-8-7------------------------||---------------------------7-------8-7-8----||-5-5-5---5-5-5-------8-8-8---6-6-6----------| . . . . . . . . . . . .
|-------------------------------------------------------------||-------------------------------------------------------------||-------------------------------------------------------------||-11-11-11-11-11-11-11-11-11-11-12-12-12-12-12-12-12-12-12-12-||--9--9--9--9--9--9--9--9--9--9-10-10-10-10-10-10-10-10-10-10-||--9--9--9--9--9--9--9--9--9--9-10-10-10-10-10-10-10-10-10-10-|
|-------------------------------------------------------------||-------------------------------------------------------------||-------------------------------------------------------------||-13-13-13-13-13-13-13-13-13-13-14-14-14-14-14-14-14-14-14-14-||-11-11-11-11-11-11-11-11-11-11-12-12-12-12-12-12-12-12-12-12-||-11-11-11-11-11-11-11-11-11-11-12-12-12-12-12-12-12-12-12-12-|
|---------------------------------------------------||---------------------------------------------------||-9-9-9-9-9-9-9-9-9-9-10-10-10-10-10-10-10-10-10-10-||-7-7-7-7-7-7-7-7-7-7--8--8--8--8--8--8--8--8--8--8-||-7-7-7-7-7-7-7-7-7-7--8--8--8--8--8--8--8--8--8--8-||---------------------------------------------------|
|-------------------------------------------------------------||-------------------------------------------------------------||-11-11-11-11-11-11-11-11-11-11-12-12-12-12-12-12-12-12-12-12-||--9--9--9--9--9--9--9--9--9--9-10-10-10-10-10-10-10-10-10-10-||--9--9--9--9--9--9--9--9--9--9-10-10-10-10-10-10-10-10-10-10-||-------------------------------------------------------------|
|---------------------------------------------------------------||---------------------------------------------------------------||---------------------------------------------------------------||--9-9-9-9-9-9-9-9-9-9-9-9-10-10-10-10-10-10-11-11-11-11-11-11--||--7-7-7-7-7-7-7-7-7-7-7-7--8--8--8--8--8--8--9--9--9--9--9--9--||--7-7-7-7-7-7-7-7-7-7-7-7--8--8--8--8--8--8--9--9--9--9--9--9--|
X2 |--------------------------------------------------| |------------------------------{NOT 1}-------------| |--------------------------11111111-10101010-------| |--9-9-9-9-9-9---------9999-----------------9999---| |--7-7-7-7-7-7--6--7-------------------------------| |--7-7-7-7-7-7--4--5-------------------------------|
|----------------------------------------------------------||----------------------------------------------------------||----------------------------------------------------------||--7-7-7-7-7-7-7-7-7-7-7-7-9-9-9-9-9-9-10-10-10-10-10-10---||--5-5-5-5-5-5-5-5-5-5-5-5-7-7-7-7-7-7--8--8--8--8--8--8---||--5-5-5-5-5-5-5-5-5-5-5-5-7-7-7-7-7-7--8--8--8--8--8--8---|
X2 |-------------------------------------------------| |-------------------------------------------------| |-------------------------------------------------| |-7-7-7-7-7-7-----------11111111-10101010---------| |-5-5-5-5-5-5-4--5--9999-----------------9999-----| |-5-5-5-5-5-5-2--3--------------------------------|
|----------------------------------||----------------------------------||----------------------------------||----------------------------------| X3|--7---7-7---7---7-7---8/9-9---X---||--5---5-5---5---5-5---6/7-7---X---|
|-------------------------------------------------------------||-------------------------------------------------------------||-------------------------------------------------------------||----------------------------------11111111-10101010----------||--7---7-7---7---7-7---8/9-9--9999-------------------9999-----||--5---5-5---5---5-5---8/7-7----------------------------------|
Strum
|------------------------------------------| |------------------------------------------| |------------------------------------------| |--9-9-9-9-9-9-9-9-10-10-10-10-10-10-10-10-| |--7-7-7-7-7-7-7-7--8--8--8--8--8--8--8--8-| |--7-7-7-7-7-7-7-7--8--8--8--8--8--8--8--8-|
X4|-------------------------------------------------||-------------------------------------------------||-------------------------------------------------||-11-11-11-11-11-11-11-11-11-11-11-11-11-11-11-11-||--9--9--9--9--9--9--9--9--9--9--9--9--9--9--9--9-||--9--9--9--9--9--9--9--9--9--9--9--9--9--9--9--9-|
|-------------------------------------------------------------||-------------------------------------------------------------||-------------------------------------------------------------||----------------------------------11111111-10101010----------| X4|--7---7-7---7---7-7---8/9-9--9999-------------------9999-----||--5---5-5---5---5-5---8/7-7----------------------------------|
|-------------------------------------------------------------||-------------------------------------------------------------||----11---11-12-11---11---12-11-12---9---9-10-9---9---10-9-10-||-------------------------------------------------------------|X2|--9----9----------9----9----------7---7--------7---7---------||-------------------------------------------------------------|
|-------------------------------------------------||-------------------------------------------------||-------11-------11-12-11-------11-------10-9-10--||-------------------------------------------------||-9-9-9----9-9-9----------8-8-8----8-8-8----------||-------------------------------------------------|
X2 |--------------------------------------------| |--------------------------------------------| |-------9-------9-10-9-------9-------8-7-8---| |--------------------------------------------| |-7-7-7---7-7-7--------6-6-6---6-6-6---------| |--------------------------------------------|
|---------------------||---------------------||---------------------| X4|---------------------||---7---9---11-12-11--||-0-5-0-7-0--9-10--9--|
|--------------------------||--------------------------||--------------------------| X4|-----5-----7-----9-10-9---||-0-0-3-0-0-5-0-0-7--8-7---||--------------------------|
|-------------------------------------------------------------||-------------------------------------------------------------||-------------------------------------------------------------||-11-11-11-11-11-11-11-11-11-11-12-12-12-12-12-12-12-12-12-12-||--9--9--9--9--9--9--9--9--9--9-10-10-10-10-10-10-10-10-10-10-||--9--9--9--9--9--9--9--9--9--9-10-10-10-10-10-10-10-10-10-10-|
|-------------------------------------------------------------||-------------------------------------------------------------||-------------------------------------------------------------||-13-13-13-13-13-13-13-13-13-13-14-14-14-14-14-14-14-14-14-14-||-11-11-11-11-11-11-11-11-11-11-12-12-12-12-12-12-12-12-12-12-||-11-11-11-11-11-11-11-11-11-11-12-12-12-12-12-12-12-12-12-12-|
|---------------------------------------------------||---------------------------------------------------||-9-9-9-9-9-9-9-9-9-9-10-10-10-10-10-10-10-10-10-10-||-7-7-7-7-7-7-7-7-7-7--8--8--8--8--8--8--8--8--8--8-||-7-7-7-7-7-7-7-7-7-7--8--8--8--8--8--8--8--8--8--8-||---------------------------------------------------|
|--------------------------||--------------------------||-11-11-11-11-11-11-11-11--||--9--9--9--9--9--9--9--9--||--9--9--9--9--9--9--9--9--||--------------------------|
|------------------------------||------------------------------||------------------------------||------------------------------||-7-9-5-9-7-9-5-9-7-9-5-9-8----||-5-7-3-7-5-7-3-7-5-7-3-7-6----|
Tap to rate this tab
 
# A B C D E F G H I J K L M N O P Q R S T U V W X Y Z