Cradle Of Filth - Bathory Aria tab

Song: Bathory Aria
By: Cradle of Filth
CD: Cruelty and the Beast
Tabbed by: Aj sutton

Palm Mute = .
Slide in = \ or 7/8
Slide out = /
Bend = ^
Vibrato = ~
Tremelo = ...
Stop = s
Pinch Harmonic = *

I've done all of the lead guitar because 
the lead and the rythem are basically the same.
I believe this is 100%. But i'll try to find better 
ways if there are any.

1st 2nd|-----------------------------|----------------------|-----------------------||-----------------------------|----------------------|-----------------------||-\12~~-\9~-12p11-11-9h11-11~-|-\9~-\12~-\9~-11-9-11-|-11-11-11-11--11-11-11-||-----------------------------|----------------------|-----------------------||-----------------------------|----------------------|-----------------------||-----------------------------|----------------------|-----------------------|
full|-------------------------------------------------------||-------------------------------------------------------||-12-11-9-11-12-11-11-11-11-11--11-11-11-11-11--11^---9-||-------------------------------------------------------||-------------------------------------------------------||-------------------------------------------------------|
|------------------------------------------------------------------||------------------------------------------------------------------||-12p11-11-12-11--11-11-11-11-11\-9/11--11-11-11-11-11\--9/11-9/11-||------------------------------------------------------------------||------------------------------------------------------------------||------------------------------------------------------------------|
|-------------------||-------------------||-9-12-11-9-12-11-9-||-------------------||-------------------||-------------------|
|----------------------------------|----------------------||----------------------------------|----------------------||-\12~~------\9~-12p11-11-9h11-11~-|-\9~-\12~-\9~-11-9-11-||----------------------------------|----------------------||----------------------------------|----------------------||----------------------------------|----------------------|
|-----------------------------------------||-----------------------------------------||-----------------------------------------||-----------------------------------------||-7...10...9...7-9...7...10...7...9...7-9-||-----------------------------------------|
|-15...14...12...-|-15...14...12...--------------------------------------------------------------------||-----------------|----------------15...12...10...-----------------------------------------------------||-----------------|-------------------------------12...11...9...---------------------------------------||-----------------|---------------------------------------------12...9...7...--------------------------||-----------------|----------------------------------------------------------10...9...7...5...7...9...-||-----------------|------------------------------------------------------------------------------------|
|----------------|----------------|---------------||----------------|----------------|---------------||-12...11...9...-|-12...10...9...-|------9...7...-||----------------|----------------|-10...---------||----------------|----------------|---------------||----------------|----------------|---------------|
|-----------------------------------------------------------------------||-----------------------------------------------------------------------||-9...12...11...9...-9...12...11...9...-9...12...10...9...-----9...7...-||-9...12...11...9...-9...12...11...9...-9...12...10...9...10...9...7...-||-7...10...-9...7...-7...10...-9...7...-7...10...-8...7...10...7...5...-||----------------------------------------------------------8...---------|
s s s s s s s s s s s s|-----------------------------------------------------------------------------------||-----------------------------------------------------------------------------------||-9...12...11...9...-9-9-9-12-12-12-11-11-11-9-9-9--9...12...10...9...-----9...7...-||-9...12...11...9...-9-9-9-12-12-12-11-11-11-9-9-9--9...12...10...9...10...9...7...-||-7...10...-9...7...-7-7-7-10-10-10--9--9--9-7-7-7--7...10...-8...7...10...7...5...-||----------------------------------------------------------------------8...---------|
|------------------------------------------------------------------||------------------------------------------------------------------||------------------------------------------------------------------||-5...--------8...7...5...7...5...---------------------------------||-----5...6...--------------------9...4...5...7...9...4...5...4...-||------------------------------------------------------------------|
|------------------------------------------------------------------||------------------------------------------------------------------||------------------------------------------------------------------||-5...--------8...7...5...7...5...8...7...5...7...10...8...7...8...||-----5...6...-----------------------------------------------------||------------------------------------------------------------------|
|------------------------------------------------------------------------||-9...--------12...11...9...11...9...------------------------------------||-----8...9...-----------------------12...7...8...10...12...7...8...7...-||------------------------------------------------------------------------||------------------------------------------------------------------------||------------------------------------------------------------------------|
|-----------------------------------------------------------------------------||-9...--------12...11...9...11...9...12....11...9...11...14...12...11...12...-||-----8...9...----------------------------------------------------------------||-----------------------------------------------------------------------------||-----------------------------------------------------------------------------||-----------------------------------------------------------------------------|
|-----------------------|------------------------||-----------------------|------------------------||-----------------------|------------------------||-\7--------------------|-\10--------------------||-----8-8-8-8p7-7-7-7-7-|------------------------||-----------------------|------8-8-8-8p7-7-7-7-7-|
|------------------|----------------------||--------------9-9-|-------------9-7------||-----------10-----|-----------------10-9-||-----7-7-7--------|------7-7-7-7---------||-7...-------------|-10...----------------||------------------|----------------------|
|-----------------------------------------------------------------------||-----------------------------------------------------------------------||-9...12...11...9...-9...12...11...9...-9...12...10...9...-----9...7...-||-9...12...11...9...-9...12...11...9...-9...12...10...9...10...9...7...-||-7...10...-9...7...-7...10...-9...7...-7...10...-8...7...10...7...5...-||----------------------------------------------------------8...---------|
s s s s s s s s s s s s|-----------------------------------------------------------------------------------||-----------------------------------------------------------------------------------||-9...12...11...9...-9-9-9-12-12-12-11-11-11-9-9-9--9...12...10...9...-----9...7...-||-9...12...11...9...-9-9-9-12-12-12-11-11-11-9-9-9--9...12...10...9...10...9...7...-||-7...10...-9...7...-7-7-7-10-10-10--9--9--9-7-7-7--7...10...-8...7...10...7...5...-||----------------------------------------------------------------------8...---------|
|-----------------------|------------------------||-----------------------|------------------------||-----------------------|------------------------||-\7--------------------|-\10--------------------||-----8-8-8-8p7-7-7-7-7-|------------------------||-----------------------|------8-8-8-8p7-7-7-7-7-|
|------------------|----------------------||------||--------------9-9-|-------------9-7------||------||-----------10-----|-----------------10-9-||-*12^-||-----7-7-7--------|------7-7-7-7---------||------||-7...-------------|-10...----------------||------||------------------|----------------------||------|
|---------|---------|--------------------------------||---------|---------|--------------------------------||---------|---------|--------------------------------||-------9-|-------2-|-2--------2-----7---5-4-5-7-5-7-||-9-9-9-9-|-9-9-9-2-|-2--------2-----7---3-2-3-5-3-5-||-7-7-7-7-|-7-7-7-0-|-0--------0-----5---------------| . . . . . .
|--------------|-----------------------------||--------------|-----------------------------||--------------|-----------------------------||----9-9-9-7-5-|----10-10-10-9-7-5-4-5-7-5-7-||-7~~----------|-7~~-------------3-2-3-5-3-5-||--------------|-----------------------------|
|----------------------------------------------------------------------------------------------||------------------------------------------------------------11---11-12--11---11---11-12--11-9-||----------------------------------------------------------------------------------------------||---8---8-9--8---8---8-9--8-6---6---6-8--6---6---6-8--6-5--9----9-----------9----9-------------||-6---6--------6---6----------5---5--------5---5-----------------------------------------------||----------------------------------------------------------------------------------------------|
|---------------------------------------------------||---------------------------------------------------||---------------------------------------------------||---------------------------------------------------||-9-9-9-9-9-9-10-10-10-9-7-7-9-9-10-10-7-7-9-9-10-9-||-7-7-7-7-7-7--8--8--8-7-5-5-7-7--8--8-5-5-7-7--8-7-| . . . . . . . . . . . . . . . . . . . . . .
|--------------|-----------------------------||--------------|-----------------------------||--------------|-----------------------------||----9-9-9-7-5-|----10-10-10-9-7-5-4-5-7-5-7-||-7~~----------|-7~~-------------3-2-3-5-3-5-||--------------|-----------------------------|
2nd|-----------------------------------|-----||------||-----------------------------------|-----||------||------------------6-6666-6665-5555-|-555-||-*12^-||-7---9-10-12-9-10-6-6666-6665-5555-|-555-||------||-5---7--8-10-7--8-4-4444-4443-3333-|-333-||------||-----------------------------------|-----||------|
|-------------------------||-------------------------||-------------------------||-7---9-10-12-9-10-6----5-||-5---7--8-10-7--8-4----3-||-------------------------|
|--------------------------------------------||--------------------------------------------||--------------------------------------------||-7~-7/8-8-7-6-7-6h7p6h7p6h7p6-6~~-------5-6-||----------------------------------8-8-8-----||--------------------------------------------|
|----------------------------|--------------||---||----------------------------|--------------||---||----------------------------|--------------||-7-||-7~-7/8-8-7-6-6/11-11~~-6-5-|-6-6-6--5-5-5-||-7-||----------------------------|--------------||-5-||----------------------------|--------------||---|
|------------------------||---|E|------------------------||---|N|------------------------||-7-|D|-7---9-10-12-9-10-6---5-||-7-|E|-5---7--8-10-7--8-4---3-||-5-|N|-0---0--0--0-0--0-0---0-||---|D
Tap to rate this tab
 
# A B C D E F G H I J K L M N O P Q R S T U V W X Y Z