Cradle Of Filth - Smoke Of Her Burning tab

The Smoke of Her Burning-cradle of filth
Email:          




|-----------------------------------|---------------------------| |-----------------------------------|---------------------------| |-----------------------------------|---------------------------| |-------------------6-6-6-6-7-7-7-7-|-6-6-6-6-4-4-4-4-3-3-3-3-4-| |-----------4-4-4-4-----------------|---------------------------| |-5-2-2-2-2-------------------------|---------------------------|
|--------------------------------------------------| |--------------------------------------------------| |--------------------------------------------------| |--------------------------4--4--4--4--------------| |--------------4--4--4--4--------------4--4--4--4--| |--2--2--2--2--------------------------------------|
|--------------------------------------------------| |--------------------------------------------------| |--------------------------------------------------| |--------------------------3--3--3--3--------------| |--------------3--3--3--3--------------3--3--3--3--| |--1--1--1--1--------------------------------------|
|---------------------------------| |---------------------------------| |---------------------------------| |-----------------6-6-6-6-7-7-7-7-| |---------4-4-4-4-----------------| |-2-2-2-2-------------------------|
|---------------------------------| |---------------------------------| |---------------------------------| |-----------------4-4-4-4-6-6-6-6-| |---------4-4-4-4-----------------| |-2-2-2-2-------------------------|
|---------------------------------| |---------------------------------| |---------------------------------| |-----------------3-3-3-3---------| |---------3-3-3-3---------3-3-3-3-| |-1-1-1-1-------------------------|
|---------------------------------| |---------------------------------| |---------------------------------| |-----------------6-6-6-6-7-7-7-7-| |---------4-4-4-4-----------------| |-2-2-2-2-------------------------|
|---------------------------| |---------------------------| |---------------------------| |-6-6-6-6-4-4-4-4-3-3-3-3-4-| |---------------------------| |---------------------------|
|--------------------------------------------------| |--------------------------------------------------| |--------------------------------------------------| |--------------------------4--4--4--4--------------| |--------------4--4--4--4--------------4--4--4--4--| |--2--2--2--2--------------------------------------|
|--------------------------------------------------| |--------------------------------------------------| |--------------------------------------------------| |--------------------------3--3--3--3--------------| |--------------3--3--3--3--------------3--3--3--3--| |--1--1--1--1--------------------------------------|
|---------------------------------| |---------------------------------| |---------------------------------| |-----------------6-6-6-6-7-7-7-7-| |---------4-4-4-4-----------------| |-2-2-2-2-------------------------|
|---------------------------| |---------------------------| |-9-9-9-9-7-7-7-7-6-6-6-6-4-| |---------------------------| |---------------------------|
|---------------------------------| |---------------------------------| |---------------------------------| |-----------------4-4-4-4-6-6-6-6-| |---------4-4-4-4-----------------| |-2-2-2-2-------------------------|
|--------------------------------------------------| |--------------------------------------------------| |--------------------------------------------------| |--------------------------3--3--3--3--------------| |--------------3--3--3--3--------------3--3--3--3--| |--1--1--1--1--------------------------------------|
|--------------------------------------------------| |--------------------------------------------------| |--------------------------------------------------| |--------------------------------------------------| |--------------------------------------4--4--4--4--| |--2--2--2--2--2--2--2--2--2--2--2--2--------------|
|--------------------------------------------------| |--------------------------------------------------| |--------------------------------------------------| |--------------------------------------------------| |--------------------------4--4--4--4--5--5--5--5--| |--2--2--2--2--2--2--2--2--------------------------|
|--------------------------------------------------| |--------------------------------------------------| |--------------------------------------------------| |--------------------------------------------------| |--0--0--0--0--0--0--0--0--0--0--0--0--5--5--5--5--| |--------------------------------------------------|
|--------------------------------------------------| |--------------------------------------------------| |--------------------------------------------------| |--------------------------------------2--2--2--2--| |--4--4--4--4--0--0--0--0--2--2--2--2--------------| |--------------------------------------------------|
|--------------------------------------------------| |--------------------------------------------------| |--------------------------------------------------| |--------------------------------------------------| |--------------------------------------4--4--4--4--| |--2--2--2--2--2--2--2--2--2--2--2--2--------------|
|--------------------------------------------------| |--------------------------------------------------| |--------------------------------------------------| |--------------------------------------------------| |--------------------------4--4--4--4--5--5--5--5--| |--2--2--2--2--2--2--2--2--------------------------|
|--------------------------------------------------| |--------------------------------------------------| |--------------------------------------------------| |--------------------------------------------------| |--0--0--0--0--0--0--0--0--0--0--0--0--5--5--5--5--| |--------------------------------------------------|
|--------------------------------------------------| |--------------------------------------------------| |--------------------------------------------------| |--------------------------------------2--2--2--2--| |--4--4--4--4--0--0--0--0--2--2--2--2--------------| |--------------------------------------------------|
|--------------------------------------------------| |--------------------------------------------------| |--------------------------------------------------| |--------------------------------------------------| |--------------------------------------4--4--4--4--| |--2--2--2--2--2--2--2--2--2--2--2--2--------------|
|--------------------------------------------------| |--------------------------------------------------| |--------------------------------------------------| |--------------------------------------------------| |--------------------------4--4--4--4--5--5--5--5--| |--2--2--2--2--2--2--2--2--------------------------|
|--------------------------------------------------| |--------------------------------------------------| |--------------------------------------------------| |--------------------------------------------------| |--0--0--0--0--0--0--0--0--0--0--0--0--5--5--5--5--| |--------------------------------------------------|
|--------------------------------------------------| |--------------------------------------------------| |--------------------------------------------------| |--------------------------------------2--2--2--2--| |--4--4--4--4--0--0--0--0--2--2--2--2--------------| |--------------------------------------------------|
|--------------------------------------------------| |--------------------------------------------------| |--------------------------------------------------| |--------------------------------------4--4--4--4--| |--------------------------------------------------| |--2--2--2--2--2--2--2--2--2--2--2--2--------------|
|--------------------------------------------------| |--------------------------------------------------| |--------------------------------------------------| |--------------------------------------------------| |--------------------------4--4--4--4--5--5--5--5--| |--2--2--2--2--2--2--2--2--------------------------|
|--------------------------------------------------| |--------------------------------------------------| |--------------------------------------------------| |--------------------------------------------------| |--0--0--0--0--0--0--0--0--0--0--0--0--5--5--5--5--| |--------------------------------------------------|
|---------------------------------| |---------------------------------| |---------------------------------| |-------------------------2-2-2-2-| |-4-4-4-4-0-0-0-0-2-2-2-2---------| |---------------------------------|
|---------------------------------| |---------------------------------| |---------------------------------| |-----------------6-6-6-6-7-7-7-7-| |---------4-4-4-4-----------------| |-2-2-2-2-------------------------|
|---------------------------| |---------------------------| |---------------------------| |-6-6-6-6-4-4-4-4-3-3-3-3-4-| |---------------------------| |---------------------------|
|--------------------------------------------------| |--------------------------------------------------| |--------------------------------------------------| |--------------------------4--4--4--4--------------| |--------------4--4--4--4--------------4--4--4--4--| |--2--2--2--2--------------------------------------|
|--------------------------------------------------| |--------------------------------------------------| |--------------------------------------------------| |--------------------------3--3--3--3--------------| |--------------3--3--3--3--------------3--3--3--3--| |--1--1--1--1--------------------------------------|
|---------------------------------| |---------------------------------| |---------------------------------| |-----------------6-6-6-6-7-7-7-7-| |---------4-4-4-4-----------------| |-2-2-2-2-------------------------|
|---------------------------| |---------------------------| |---------------------------| |-9-9-9-9-7-7-7-7-6-6-6-6-4-| |---------------------------| |---------------------------|
|---------------------------------| |---------------------------------| |---------------------------------| |-----------------4-4-4-4-6-6-6-6-| |---------4-4-4-4-----------------| |-2-2-2-2-------------------------|
|---------------------------------| |---------------------------------| |---------------------------------| |-----------------3-3-3-3---------| |---------3-3-3-3---------3-3-3-3-| |-1-1-1-1-------------------------|
|---------------------------------| |---------------------------------| |---------------------------------| |-----------------6-6-6-6-7-7-7-7-| |---------4-4-4-4-----------------| |-2-2-2-2-------------------------|
|---------------------------| |---------------------------| |---------------------------| |-6-6-6-6-4-4-4-4-3-3-3-3-4-| |---------------------------| |---------------------------|
|--------------------------------------------------| |--------------------------------------------------| |--------------------------------------------------| |--------------------------4--4--4--4--------------| |--------------4--4--4--4--------------4--4--4--4--| |--2--2--2--2--------------------------------------|
|--------------------------------------------------| |--------------------------------------------------| |--------------------------------------------------| |--------------------------3--3--3--3--------------| |--------------3--3--3--3--------------3--3--3--3--| |--1--1--1--1--------------------------------------|
|---------------------------------| |---------------------------------| |---------------------------------| |-----------------6-6-6-6-7-7-7-7-| |---------4-4-4-4-----------------| |-2-2-2-2-------------------------|
|---------------------------| |---------------------------| |---------------------------| |-9-9-9-9-7-7-7-7-6-6-6-6-4-| |---------------------------| |---------------------------|
|---------------------------------| |---------------------------------| |---------------------------------| |-----------------4-4-4-4-6-6-6-6-| |---------4-4-4-4-----------------| |-2-2-2-2-------------------------|
|---------------------------------| |---------------------------------| |---------------------------------| |-----------------3-3-3-3---------| |---------3-3-3-3---------3-3-3-3-| |-1-1-1-1-------------------------|
|----------------------------|-------------------------------| |----------------------------|------2---4---5---4--2-4-2--0--| |-----2---0---4---2---5---4--|--2----------------------------| |--2-------------------------|-------------------------------| |----------------------------|-------------------------------| |----------------------------|-------------------------------|
Tap to rate this tab
 
# A B C D E F G H I J K L M N O P Q R S T U V W X Y Z